Cifra Club

Quem Bate Esquece

Márcia Fellipe

Cifra: Principal (violão e guitarra)
tom: B

E|---5/7-7-5------------------------------------------|
B|-----------9-7-5-5h7-5-7/9--------------------------|
G|----------------------------------------------------|
D|----------------------------------------------------|
A|----------------------------------------------------|
E|----------------------------------------------------|

E|---5/7-7-5----------------14------------------------|
B|-----------9-7-5-5h7-9-13---------------------------|
G|----------------------------------------------------|
D|----------------------------------------------------|
A|----------------------------------------------------|
E|----------------------------------------------------|

C#m
Ta passando um filme
                   E
Na minha cabeça agora

E a cena que mais se repete
                 B
É você indo embora
                              F#
Dizendo as suas ultimas palavras

Que eu não esqueço por nada

C#m
Doeu saber que meu amor foi descartável pra você
E
Doeu saber que fui usada só pro seu prazer
         B
E o meu coração que fica mal
                            F#
Enquanto o seu acha tudo normal

  B
Quem bate esquece
                           F#
Quem apanha nunca vai esquecer
      
E essa dor só dura até
                C#m
Eu começar a beber

Eu dobro a dose
                        E
E você sai um pouco de mim

Mas você volta toda vez
          F#
Que o efeito chega ao fim
Compositor não encontrado.
Colaboração e revisão:
  • Lucas Oliveira
526 exibições
    • ½ Tom
    • A
    • Bb
    • B
    • C
    • Db
    • D
    • Eb
    • E
    • F
    • F#
    • G
    • Ab
  • Adicionar à lista

    0 comentários

    Ver todos os comentários

    Conseguiu tocar?

    0 Tocaram 0 Ainda não

    Grave um vídeo tocando Quem Bate Esquece e nos envie!

    00:00 / 00:00
    Outros vídeos desta música
    Repetir Qualidade Automático
    Outros vídeos desta música
    00:00 / 00:00
    Automático

    Cifra Club Pro

    Aproveite o Cifra Club com benefícios exclusivos e sem anúncios
    Cifra Club Pro
    Aproveite o Cifra Club com benefícios exclusivos e sem anúncios
    OK