Cifra Club

Aprenda

Labirinto

Marco Aurélio e Paulo Sérgio

Cifra: Principal (violão e guitarra)
Tom: F# (forma dos acordes no tom de D#) Capotraste na 3ª casa
(capo na 3ª casa, ou diminua a musica em 1 tom e 1/2)

(intro 2x)  D# A# Cm G#

      D#                  A#                       Cm                G#
E|----------------------------------------|-----------------------------------|
B|----------------------6-----6-----------|----4----4------------4-----4------|
G|----8----8------------------------------|--5----5-----5------5-----5--------|
D|--8----8-----8------8-----8-----8-------|-----------------------------------|
A|6----6-----6----------------------------|3----3-----3-----------------------|
E|------------------6-----6-----6---------|------------------4-----4-----4----|

(solo)
E|----3-4-4h6--4-3----------------------|----3-4-4h6--11-10-6-6h8-6-8-8------------11-10-8h10p8-|
B|3h4--------------6-6-4--9-9-9-8-6-6/8-|3h4------------------------------------8-9-------------|
G|--------------------------------------|-----------------------------------8-10----------------|
D|--------------------------------------|-------------------------------8-10--------------------|
A|--------------------------------------|-------------------------------------------------------|
E|--------------------------------------|-------------------------------------------------------|

Cm                                     G#
Deixa do jeito que tá, não quero explicação
Cm                              G#
Pode ir embora eu seguro essa separação
Eb                 A#            Cm        G#
Deixa do jeito que tá que eu me viro sozinho
Eb          A#             G#              G#
Eu vou tentar te esquecer achar outro caminho.

Eb             A#           Cm           G#
Sei que não é facil esquecer o amor de uma vida
Eb              A#           Cm           G#
Nesse labirinto, solidão parece não ter saída.

Eb      A#    Cm                       G#
Sonhos, planos, tudo aquilo que vivemos se perdeu
Eb        A#               Cm                   G#
Choro, choro, vou ficar com as lembranças que a gente

viveu
Eb   A#     G#
Foi tão lindo...
Cm
Foi tão bom...

(repete tudo)
Composição de Marco Aurelio / Paulo Sérgio 41.321 exibições
    • ½ Tom
    • A
    • Bb
    • B
    • C
    • Db
    • D
    • Eb
    • E
    • F
    • F#
    • G
    • Ab
  • Adicionar à lista

    0 comentários

    Mostrar mais comentários

    Conseguiu tocar?

    0 Tocaram 0 Ainda não

    Grave um vídeo tocando Labirinto e mande pra gente!

    00:00 / 00:00
    outros vídeos desta música
    repetir qualidade Automático
    Outros vídeos desta música
    00:00 / 00:00
    Automático

    Cifra Club Pro

    Aproveite o Cifra Club com benefícios exclusivos e sem anúncios
    7 dias grátis
    Cifra Club Pro
    Aproveite o Cifra Club com benefícios exclusivos e sem anúncios
    7 dias grátis
    OK