Cifra Club

Aprenda

@Isa

Marcos & Belutti

Cifra: Principal (violão e guitarra)
tom: Am
[Intro] F  G  Am  

E|-----------------------------------------|
B|--3/5--3--1--3h5-5-----------------------|
G|---------------------5h7-5h7-5h7---------|
D|--5/7--5--3------------------------------|
A|-----------------------------------------|
E|-----------------------------------------|

E|-----------------------------------------|
B|--5\3--1---------------------------------|
G|---------2--2-0--------------------------|
D|----------------3------------------------|
A|-----------------------------------------|
E|-----------------------------------------|

[Primeira Parte]

   F9
A gente terminou
G
Eu te bloqueei
 Em7                 Am7
Mas você ainda sabe muito
  F
Até quem me beijou
G
Onde frequentei
   Em7               Am7
Sabia absolutamente tudo

   F9
Você não superou
   G
O fim do nosso amor
     Em7
Foi só te bloquear
    Am7
Ganhei um seguidor
          F9
Já tá manjado
             E
Esse perfil falso

[Refrão]

 F     F#  
@Isa, hey!
 G                       Am7
Vê se vai cuidar da sua vida
                         F
Seguidores você só tem trinta
   G
E pensa que eu não sei
   Em7                    Am7
A dona desse fake é minha ex

 F     F#  
@Isa, hey!
 G                       Am7
Vê se vai cuidar da sua vida
                         F
Seguidores você só tem trinta
   G
E pensa que eu não sei
   Em7                    Am7
A dona desse fake é minha ex

[Solo] F  G  Am7
       F  G  Am7  G

E|------------------------------------------|
B|-------5-5-5-5-8-8------------------------|
G|-5-5-5-------------7-7-7-5-7-7-7/9--------|
D|-----------------------------------7------|
A|------------------------------------------|
E|------------------------------------------|

E|------------------------------------------|
B|---------5-5-5-5-8-8----------------------|
G|-5-5-5---------------7-7-7-5-7-7/9-7-5----|
D|---------------------------------------7--|
A|------------------------------------------|
E|------------------------------------------|

[Primeira Parte]

   F9
A gente terminou
G
Eu te bloqueei
 Em7                 Am7  G
Mas você ainda sabe muito
  F
Até quem me beijou
G
Onde frequentei
   Em7               Am7
Sabia absolutamente tudo

   F9
Você não superou
   G
O fim do nosso amor
     Em7
Foi só te bloquear
    Am7
Ganhei um seguidor
          F9
Já tá manjado
             E
Esse perfil falso

[Refrão]

 F     F#  
@Isa, hey!
 G                       Am7
Vê se vai cuidar da sua vida
                         F
Seguidores você só tem trinta
   G
E pensa que eu não sei
   Em7                    Am7
A dona desse fake é minha ex

 F     F#  
@Isa, hey!
 G                       Am7
Vê se vai cuidar da sua vida
                         F
Seguidores você só tem trinta
   G
E pensa que eu não sei
   Em7                    Am7
A dona desse fake é minha ex

 F     F#  
@Isa, hey!
 G                       Am7
Vê se vai cuidar da sua vida
                         F
Seguidores você só tem trinta
   G
E pensa que eu não sei
   Em7                    Am7
A dona desse fake é minha ex

 F     F#  
@Isa, hey!
 G                       Am7
Vê se vai cuidar da sua vida
                         F
Seguidores você só tem trinta
   G
E pensa que eu não sei
   Em7                    Am7
A dona desse fake é minha ex

@Isa

[Final] Am7
Compositor não encontrado.
Colaboração e revisão:
  • Gustavo Vaz
  • ThaliaThaleia
6.616 exibições
    • ½ Tom
    • Am
    • Bbm
    • Bm
    • Cm
    • C#m
    • Dm
    • Ebm
    • Em
    • Fm
    • F#m
    • Gm
    • G#m
  • Adicionar à lista

    0 comentários

    Ver todos os comentários
    00:00 / 00:00
    Outros vídeos desta música
    Repetir Qualidade Automático
    Outros vídeos desta música
    00:00 / 00:00
    Automático

    Cifra Club Pro

    Aproveite o Cifra Club com benefícios exclusivos e sem anúncios
    Cifra Club Pro
    Aproveite o Cifra Club com benefícios exclusivos e sem anúncios
    OK