Cifra Club

A la mierda primavera

Marea

Cifra: Principal (violão e guitarra)
tom: C

Riff 1
E|--------------------------------------------------------------------|
B|--------------------------------------------------------------------|
G|--------------------------------------------------------------------|
D|---2-----2-----2---3-----5-----3---2-----2-----2---3-----5-----3----|
A|-----0-0---0-0---0---0-0---0-0---0---0-0---0-0---0---0-0---0-0------|
E|--------------------------------------------------------------------|

E|--------------------------------------------------------------------|
B|--------------------------------------------------------------------|
G|--------------------------------------------------------------------|
D|---2-----2-----2---3-----5-----3-5-----5-----5---3-----3-----3------|
A|-----3-3---3-3---3---3-3---3-3-----5-5---5-5---5---3-3---3-3---3----|
E|--------------------------------------------------------------------|

Se toca el riff una vez y luego se acompañan estos versos hasta los acordes

Estaba encerrao para no ver a nadie,

abrí una rendija para oir el aire

y oí “ven pacá, cagüendiós”,

yo creí que eras... tú,

aullaron los vientos con su escandalera,

“no veas compadre, la que hay aquí afuera”,
                                       G              F 
no quiero saberlo, llevároslo todo, dejadme el silencio...

Am  C  G   F 

Am                     C  Am             C 
... dejadme que os cuente mi cuento de herida y caricias,
Am             C                  G                    F 
mi historia de nadie, mi nana del hambre, todas mis mentiras,
Am            C  Am           C 
tal vez embelese y te bese cortándome a tiras,
Am            C                    G                  F 
si buscas deslumbre y encuentras alambre será que descuidas,


Dm      Am           G                         Dm 
más que agua es aguarrás, lo que sudo al despertar
      Am        G  
si te veo pasar sola,
         Dm                Am 
se hacen charcos, se hacen olas,
        G                                 Dm 
y yo un barrio de chabolas que te quiere bien,
Am                    G  
pa que te acuestes en él,
F                     Am   C  Am   C  (Como al principio y toda esta estrofa)
pa que te pierdas con él,


... dejadme que invente que un tren es la libertad mía,
que va donde quiero, sin más traqueteo, sin más tontería,
tal vez no reviente de ganas de andar por la vía,
con penas a miles, borrando raíles, borrando los días,


Dm      Am           G                         Dm 
más que agua es aguarrás, lo que sudo al despertar
      Am        G  
si te veo pasar sola,
         Dm                Am 
se hacen charcos, se hacen olas,
        G                                 Dm 
y yo un barrio de chabolas que te quiere bien,
Am                    G  
pa que te acuestes en él,
F 
pa que te pierdas con él,

Riff 2
E|--------------------------------------------------------------------------------------------|
B|--------1-------1---------0-------0---------1-------1-----------1-----------------0---------|
G|------0-------0---0-----0-------0---0-----2-------2---2-------2---2-------------0---0-------|
D|----2-------2---------2-------2---------2-------2-----------3-------3---------0-------0-----|
A|--3-------3---------------------------0-------0-----------3-----------3-----3-----------3---|
E|--------------------0-------0---------------------------1---------------1-2---------------2-|

Se repite el riff con el solo que Pedro tiene que sacarme


Y ahora con Palm Mute

      C 
no sé nada de correr, no sé nada de ascender,
        Em                                             Am 
de esta mierda de arcoiris, del cigarro de después, no sé,
                   F                       G  
si la vida pasa en cueros, castigao a la pared,
      C 
no sé nada de aguantar, no sé nada de achuchar,
     Em                                          Am 
de ponerme de rodillas, de llorar para mamar, no sé,
                     F                    G  
en cuanto acaben los tiros garabatos al papel,

          C                          Em 
que si me quedo con los dientes relucientes
                  Am 
y embarrao el corazón,
                    F            G  
tu tic tac y el mío son el mismo son,

y eso sí que no...


Los solos tb los sacará el Pirata de Pj pero de momento podeis silbarlos y acompañarlo con
C  F  C  G   C  Am  G   F  x2
Dm  Am  G   x4 +Fa


Am                     C  Am             C 
... dejadme que os cuente mi cuento de herida y caricias,
Am             C                  G                    F 
mi historia de nadie, mi nana del hambre, todas mis mentiras,
         C                      Em 
que ésta es la pataleta que nos da mientras suspiras,
       Am                      F          G  
lo que queda del atraco que le dimos a la vida,
       C                     Em 
de las mantas que liamos todavía queda alguna,
     Am                       F          G  
esto queda de los halos que robamos a la luna,

C   F                       C 
      y voy entrándole al día,
    G                 C                   Am 
      y al salir le dejo la alfombra de mierda perdía,
            G                     F 
      que no se le olvide el planeta en que vive,
C   F                    C 
      y otra vez a la acera,
    G                    C                    Am 
      y así me da la mañana y la tarde y la noche entera...
            G              F 
      ... y a la mierda primavera.

C   F                       C 
      y voy entrándole al día,
    G                 C                   Am 
      y al salir le dejo la alfombra de mierda perdía,
            G                     F 
      que no se le olvide el planeta en que vive,
C   F                    C 
      y otra vez a la acera,
    G                    C                    Am 
      y así me da la mañana y la tarde y la noche entera...
            G              F 
      ... y a la mierda primavera.
Composição de Kutxi Romero, de profesión Bandolero
6 exibições
    • ½ Tom
    • A
    • Bb
    • B
    • C
    • Db
    • D
    • Eb
    • E
    • F
    • F#
    • G
    • Ab
  • Adicionar à lista

    0 comentários

    Ver todos os comentários

    Conseguiu tocar?

    0 Tocaram 0 Ainda não

    Grave um vídeo tocando A la mierda primavera e nos envie!

    00:00 / 00:00
    Outros vídeos desta música
    Repetir Qualidade Automático
    Outros vídeos desta música
    00:00 / 00:00
    Automático

    Cifra Club Pro

    Aproveite o Cifra Club com benefícios exclusivos e sem anúncios
    Cifra Club Pro
    Aproveite o Cifra Club com benefícios exclusivos e sem anúncios
    OK