Cifra Club

Duerme conmigo

Marea

Cifra: Principal (violão e guitarra)
tom: G#m
    RIFF 1
E|------------------------------------------------|
B|---------------7-7--7---------------9-9--9------|
G|---------------7-7--7---------------9-9--9------|
D|--4---4---4----5-5--5---4---4---4---7-7--7------|
A|--4---4---4-------------4---4---4---------------|
E|--2-0-2-0-2-------------2-0-2-0-2---------------|

    RIFF 2
E|--------------------------|
B|--------------------------|
G|--8-----4---------6-------|
D|--8-----4----4----6-------|
A|--6-----2----4----4-------|
E|-------------2------------|

Este Riff se toca así en la Intro y después con la letra
se toca como el de arriba, con palm mute y esas cosas

   RIFF 3
E|---------------------------|
B|---------------------------|
G|--4----6----8---8---8---8--|
D|--4----6----8---8---8---8--|
A|--2----4----6---6---6---8--|
E|---------------------------|

En este Riff al final viene un punteo rockero que no me ha
apetecido sacar pero queda de puta madre, así que a ver si
alguien se lo curra y lo saca.


RIFF 1 X2
RIFF 2 X2

  [RIFF 1]
  Todavía estoy mal cosido,
  ayer me heló despacito,tu
  no te rias que es verdad
  que no me lo ha hecho nadie,
  que duermo solito

  [RIFF 2]
  Que mi cama esta hecha donde no hay ventanas,
  donde las miradas tienen ganas
  donde hay lunas de tela,
  y un sol navajero de noches en vela.

  [RIFF 2]
  Donde llevo el olvido a soltar la melena
  Donde nunca pienso si me kieres
  Donde todo es mentira ,y en giros de penas
  desconchan paredes...

  [RIFF 3]
  Duerme conmigo,
  si eres piedra da igual
  yo sere pedregoso camino

  [RIFF 3]
  Duerme conmigo
  yo te canto,te arrullo,te arropo,
  te abrigo te mimo

  [RIFF 1]
  Sé que me cuentan los días
  los abrazos sin hallarte
  y me recuesto en el suelo
  y se me eriza el pelo
  en solo recordate

  [RIFF 2]
  Que mi almohada está llena
  de cuando no estabas
  de canciones que nunca cantabas de todo de nada
  de besos de esos que nunca me dabas

  [RIFF 2]
  Y de un tiempo a esta parte decido soñarte
  embrear mi camino con lodo
  y cagandome en todo
  volar y ya ves despierto como me acoste

  [RIFF 3]
  Duerme conmigo,
  si eres piedra da igual
  yo sere pedregoso camino

  [RIFF 3]
  Duerme conmigo
  yo te canto,te arrullo,te arropo,
  te abrigo te mimo
00:00 / 00:00
Outros vídeos desta música
Repetir
Outros vídeos desta música
Compositor não encontrado.
3 exibições
    • ½ Tom
    • Am
    • Bbm
    • Bm
    • Cm
    • C#m
    • Dm
    • Ebm
    • Em
    • Fm
    • F#m
    • Gm
    • G#m
  • Adicionar à lista

    0 comentários

    Ver todos os comentários

    Conseguiu tocar?

    0 Tocaram 0 Ainda não

    Grave um vídeo tocando Duerme conmigo e nos envie!

    00:00 / 00:00

    Cifra Club Pro

    Aproveite o Cifra Club com benefícios exclusivos e sem anúncios
    Cifra Club Pro
    Aproveite o Cifra Club com benefícios exclusivos e sem anúncios
    OK