Cifra Club

Encontro

Maria Gadú

Cifra: Principal (violão e guitarra)
exibições 166.288
Tom: D
[Intro]

[Riff]

E|--------------------|---------------------------|
B|--------------------|---------------------------|
G|------7--5----4--2--|---7--5---4--2p0-----------|
D|------7--5----4--2--|---7--5---4--2---2---------|
A|--0------0-------0--|-0----0------0-------------|
E|--------------------|---------------------------|

E|--------------------|---------------------------|
B|--------------------|----------2----------------|
G|----7--5---4---2----|---7--5---4----------------|
D|----7--5---4---2----|---7--5---4----------------|
A|-0-----0-------0----|-0----0--------------------|
E|--------------------|---------------------------|

E|--------------------|---------------------------|
B|--------------------|---------------------------|
G|------7--5----4--2--|---7--5---4--2p0-----------|
D|------7--5----4--2--|---7--5---4--2---2---------|
A|--0------0-------0--|-0----0------0-------------|
E|--------------------|---------------------------|

E|--------------------|---------------------------|
B|--------------------|----------2----------------|
G|----7--5---4---2----|---7--5---4----------------|
D|----7--5---4---2----|---7--5---4----------------|
A|-0-----0-------0----|-0----0--------------------|
E|--------------------|---------------------------|

[Primeira Parte]

 A9
Sai de si
               E/G#
Vem curar teu mal
F#m7
   Te transbordo em som
Dm/F
   Poe juizo em mim
A9                       E/G#
  Teu olhar me tirou daqui
F#m7
   Ampliou meu ser
Dm/F
   Quero um pouco mais

     F#m7
Não tudo
                         G9
Pra gente não perder a graça no escuro
    F#m7
No fundo
                  G9
Pode ser até pouquinho sendo só pra mim sim

[Riff]

E|--------------------|---------------------------|
B|--------------------|---------------------------|
G|------7--5----4--2--|---7--5---4--2p0-----------|
D|------7--5----4--2--|---7--5---4--2---2---------|
A|--0------0-------0--|-0----0------0-------------|
E|--------------------|---------------------------|

E|--------------------|---------------------------|
B|--------------------|----------2----------------|
G|----7--5---4---2----|---7--5---4----------------|
D|----7--5---4---2----|---7--5---4----------------|
A|-0-----0-------0----|-0----0--------------------|
E|--------------------|---------------------------|

[Segunda Parte]

A9
 Olhe só
               E/G#
Como a noite cresce em glória
F#m7
    E a distância traz
Dm/F
    Nosso amanhecer
 A9                            E/G#
Deixa estar que o que for pra ser vigora
F#m7                Dm/F
    Eu sou tão feliz vamos dividir

    F#m7
Os sonhos
                         G9
Que podem transformar o rumo da história
     F#m7
Vem logo
                     G9
Que o tempo voa como eu quando penso em você

[Riff]

E|--------------------|---------------------------|
B|--------------------|---------------------------|
G|------7--5----4--2--|---7--5---4--2p0-----------|
D|------7--5----4--2--|---7--5---4--2---2---------|
A|--0------0-------0--|-0----0------0-------------|
E|--------------------|---------------------------|

E|--------------------|---------------------------|
B|--------------------|----------2----------------|
G|----7--5---4---2----|---7--5---4----------------|
D|----7--5---4---2----|---7--5---4----------------|
A|-0-----0-------0----|-0----0--------------------|
E|--------------------|---------------------------|

E|--------------------|---------------------------|
B|--------------------|---------------------------|
G|------7--5----4--2--|---7--5---4--2p0-----------|
D|------7--5----4--2--|---7--5---4--2---2---------|
A|--0------0-------0--|-0----0------0-------------|
E|--------------------|---------------------------|

E|--------------------|---------------------------|
B|--------------------|----------2----------------|
G|----7--5---4---2----|---7--5---4----------------|
D|----7--5---4---2----|---7--5---4----------------|
A|-0-----0-------0----|-0----0--------------------|
E|--------------------|---------------------------|

E|--------------------|---------------------------|
B|--------------------|---------------------------|
G|------7--6----7--6--|---7--6---5/6--4---2--2/4--|
D|------7--5----7--5--|---7--5---5----4---2--2/4--|
A|--0------0-------0--|-0----0--------------------|
E|--------------------|---------------------------|

[Segunda Parte]

A9
 Olhe só
               E/G#
Como a noite cresce em glória
F#m7
    E a distância traz
Dm/F
    Nosso amanhecer
 A9                            E/G#
Deixa estar que o que for pra ser vigora
F#m7                Dm/F
    Eu sou tão feliz vamos dividir

    F#m7
Os sonhos
                         G9
Que podem transformar o rumo da história
     F#m7
Vem logo
                     G9
Que o tempo voa como eu quando penso em você

[Riff]

E|--------------------|---------------------------|
B|--------------------|---------------------------|
G|------7--5----4--2--|---7--5---4--2p0-----------|
D|------7--5----4--2--|---7--5---4--2---2---------|
A|--0------0-------0--|-0----0------0-------------|
E|--------------------|---------------------------|

E|--------------------|---------------------------|
B|--------------------|----------2----------------|
G|----7--5---4---2----|---7--5---4----------------| (4x)
D|----7--5---4---2----|---7--5---4----------------|
A|-0-----0-------0----|-0----0--------------------|
E|--------------------|---------------------------|
Acordes para:
    Composição: Maria Gadú Colaboração e revisão:

    0 comentários

    mostrar mais comentários

    Conseguiu tocar?

    9 tocaram 1 ainda não

    Grave um vídeo tocando Encontro e mande pra gente!

    00:00 / 00:00
    outros vídeos desta música
    repetir qualidade Automático
    Outros vídeos desta música
    00:00 / 00:00
    Automático
    OK