Cifra Club

Eu

Mariana Froes

Cifra: Principal (violão e guitarra)
Selo Cifra Club: esta cifra foi revisada para atender aos critérios oficiais da nossa Equipe de Qualidade.
tom: A
[Intro]

   A7M                      D7M       
E|------0------2-----4-----2----2-----2-----2-----|
B|-2-2----2----2-2-----2---2-2----2-----2-----2---|
G|-1---1----1--2---2-----2-2---2----2-----2-----2-|
D|-2-----------0-----------0----------------------|
A|-0----------------------------------------------|
E|------------------------------------------------|

   A7M                     D7M
E|------0------2-----4-----2----2-----2-----------|
B|-2-2----2----2-2-----2---2-2----2---------------|
G|-1---1----1--2---2-----2-2---2----2-------------|
D|-2-----------0-----------0----------------------|
A|-0----------------------------------------------|
E|------------------------------------------------|

[Repete durante a música]

   A7M                  D7M                 C#m7                               
E|----------------------2-2---2-2---2-2---2-------|
B|-2-2---2-2---2-2---2--2-2---2-2---2-2---2--5-5--|
G|-1-1---1-1---1-1---1--2-2---2-2---2-2---2--4-4--|
D|-2-2---2-2---2-2---2--0---0-----0-----0----6-6--|
A|-0---0-----0-----0-------------------------4----|
E|------------------------------------------------|
                 Cm7 Bm7     E
E|------------------------------------------------|
B|---5-5---5-5----4--3-3---3-0-0---0--------------|
G|---4-4---4-4----3--2-2---2-1-2---2--------------|
D|---6-6---6-6----5--4-4---4-2-2---2--------------|
A|-4-----4-----4--3--2---2---2----2---------------|
E|------------------------------------------------|

A7M                 D7M
   Ah, me mostra tua alma
                C#m7
Que eu quero fugir de mim
            Cm7  Bm7  E
Preciso fugir de mim

A7M                 D7M
  Ou, me mostre alguma música
            C#m7 
Funciona também pra mim
         Cm7 Bm7     E
Funciona também pra mim

A7M                  D7M
   Ah, se tu pudesses ver o que eu vejo
         C#m7
E sentir as pontas dos dedos
Cm7  Bm7   E
Desaparecer

A7M                  D7M
   Ah, se tu pudesses ser o que sou
       C#m7               Cm7  Bm7
Aeronave sem asas, prestes apontar vôo
E                  A7M
Tu entenderias que sou

[Refrão]

                    D7M
Obra inacabada, talvez uma apaixonada
     C#m7 
Pela vã melancolia
Cm7   Bm7  E
Talvez eu
A7M                    D7M
  Obra inacabada, talvez uma apaixonada
     C#m7
Pela vã melancolia que é
 Cm7  Bm7  E
Ser eu

A7M          D7M
 Eu, sempre eu
       C#m7
Sempre eu (eu)
   Cm7  Bm7  E
Sempre eu

A7M                   D7M
  Ah, me fale dos teus medos
               C#m7
Que eu quero fugir dos meus
      Cm7  Bm7         E
Preciso fugir dos meus

A7M                D7M
  Oh, me conte algum segredo
                 C#m7
Pra que eu possa carregar
         Cm7  Bm7  E
Alguma importância

A7M                  D7M
   Ah, se tu pudesses ver o que eu vejo
          C#m7
E sentir lá dentro do peito
      Cm7    Bm7  E
Uma roda de samba

A7M                  D7M
   Ah, se tu pudesses ser o que sou
        C#m7
Platéia indo embora
    Cm7  Bm7
Acabou o show
E                       A7M
 Tu entenderias que sou

[Refrão]
                    D7M
Obra inacabada, talvez uma apaixonada
     C#m7 
Pela vã melancolia
   Cm7  Bm7  E
Talvez eu
A7M                    D7M
  Obra inacabada, talvez uma apaixonada
     C#m7
Pela vã melancolia que é
    Bm7  E
Ser eu

A7M          D7M
 Eu, sempre eu
       C#m7
Sempre eu (eu)
   Cm7  Bm7  E
Sempre eu

[Final] A7M  D7M  A7M
Outros vídeos desta música
    80.168 exibições
    • Simplificar cifra
      • ½ Tom
      • A
      • Bb
      • B
      • C
      • Db
      • D
      • Eb
      • E
      • F
      • F#
      • G
      • Ab
    • Adicionar à lista

    Afinação da cifra

    Afinador online

      0 comentários

      Ver todos os comentários

      Conseguiu tocar?

      35Tocaram3Ainda não

      Grave um vídeo tocando Eu e nos envie!

      Entre para o Cifra Club PRO

      Tenha acesso a benefícios exclusivos no App e no Site

      • Chega de anúncios

      • Badges exclusivas

      • Mais recursos no app do Afinador

      • Atendimento Prioritário

      • Aumente seu limite de lista

      • Ajude a produzir mais conteúdo

      Cifra Club Pro

      Aproveite o Cifra Club com benefícios exclusivos e sem anúncios
      Cifra Club Pro
      Aproveite o Cifra Club com benefícios exclusivos e sem anúncios
      Ops (: Contenido disponible sólo en portugués.
      OK