Cifra Club

Bye Bye

Marília Mendonça

Cifra: Principal (violão e guitarra)
exibições 6.500
Tom: C
[Intro] C  Am7  F  Fm

E|-------------3------------5~--------------|
B|---3h5p3---3----3-3h5-3h5-----------------|
G|-5-------5--------------------------------|
D|------------------------------------------|
A|------------------------------------------|
E|------------------------------------------|

E|------------------------------------------|
B|-3-3h5-3h5-3\1-1-1------------------------|
G|------------------------------------------|
D|------------------------------------------|
A|------------------------------------------|
E|------------------------------------------|

E|------------------------------------------|
B|-3-3h5-3h5-3\1-1-1--6-5~------------------|
G|------------------------------------------|
D|------------------------------------------|
A|------------------------------------------|
E|------------------------------------------|

[Primeira Parte]

 C                Am7
Já memorizei o seu   corpo todo
F                                 Fm
 Pro caso da gente não se ver de novo
 C                      Am7
Doa a quem doer, essa é a verdade
F                            Fm
 Entre nós dois não cabe saudade

[Pré-Refrão]

       Am7              Em
Pra você, sou só mais uma carona
              F                       Fm
No final de uma balada, me envolvi sabendo
       Am7                      Em
Somos dois estranhos numa cama temporária
          F                          Fm
Fazendo amor, consciente que é só momento

O quarto é grande, mas não cabe sentimento

[Refrão]

            C
Vai doer demais
           Am7
Escutar o seu bye bye
             F
Depois do I love you
               Fm
Adeus pro seu corpo nu

            C
Vai doer demais
               Am7
Escutar o seu bye bye
             F
Depois do I love you
               Fm                   C
Saber que seu corpo nunca mais vai ser meu

[Solo] Am7  F  Fm
       C  Am7  F  Fm

E|-------------3------------5~--------------|
B|---3h5p3---3----3-3h5-3h5-----------------|
G|-5-------5--------------------------------|
D|------------------------------------------|
A|------------------------------------------|
E|------------------------------------------|

E|------------------------------------------|
B|-3-3h5-3h5-3\1-1-1--3-3h5-3h5-3\1-1-1-----|
G|------------------------------------------|
D|------------------------------------------|
A|------------------------------------------|
E|------------------------------------------|

E|-------------3------------5~--------------|
B|---3h5p3---3----3-3h5-3h5-----------------|
G|-5-------5--------------------------------|
D|------------------------------------------|
A|------------------------------------------|
E|------------------------------------------|

E|------------------------------------------|
B|-3-3h5-3h5-3\1-1-1------------------------|
G|------------------------------------------|
D|------------------------------------------|
A|------------------------------------------|
E|------------------------------------------|

E|------------------------------------------|
B|-3-3h5-3h5-3\1-1-1--8-6-5~----------------|
G|------------------------------------------|
D|------------------------------------------|
A|------------------------------------------|
E|------------------------------------------|

[Pré-Refrão]

       Am7              Em
Pra você, sou só mais uma carona
              F                       Fm
No final de uma balada, me envolvi sabendo
   G   Am7                      Em
Somos dois estranhos numa cama temporária
          F                          Fm
Fazendo amor, consciente que é só momento

O quarto é grande, mas não cabe sentimento

[Refrão]

            C
Vai doer demais
           Am7
Escutar o seu bye bye
             F
Depois do I love you
               Fm
Adeus pro seu corpo nu

            C
Vai doer demais
               Am7
Escutar o seu bye bye
             F
Depois do I love you
               Fm                   C
Saber que seu corpo nunca mais vai ser meu

[Solo] Am7  F  Fm

E|-------------3------------5~--------------|
B|---3h5p3---3----3-3h5-3h5-----------------|
G|-5-------5--------------------------------|
D|------------------------------------------|
A|------------------------------------------|
E|------------------------------------------|

E|------------------------------------------|
B|-3-3h5-3h5-3\1-1-1--3-3h5-3h5-3\1-1-1-----|
G|------------------------------------------|
D|------------------------------------------|
A|------------------------------------------|
E|------------------------------------------|

[Refrão]

            C
Vai doer demais
           Am7
Escutar o seu bye bye
             F
Depois do I love you
               Fm
Adeus pro seu corpo nu

            C
Vai doer demais
               Am7
Escutar o seu bye bye
             F
Depois do I love you
               Fm                   C
Saber que seu corpo nunca mais vai ser meu

[Solo] Am7  F  

E|------------5~----------------------------|
B|-3-3h5-3h5--------------------------------|
G|------------------------------------------|
D|------------------------------------------|
A|------------------------------------------|
E|------------------------------------------|

E|------------------------------------------|
B|-3-3h5-3h5-3\1-1-1------------------------|
G|------------------------------------------|
D|------------------------------------------|
A|------------------------------------------|
E|------------------------------------------|

               Fm                       C
Saber que seu corpo nunca mais vai ser meu
Acordes para:

    0 comentários

    mostrar mais comentários

    Conseguiu tocar?

    6 tocaram 0 ainda não

    Grave um vídeo tocando Bye Bye e mande pra gente!

    00:00 / 00:00
    outros vídeos desta música
    repetir qualidade Automático
    Outros vídeos desta música
    00:00 / 00:00
    Automático
    OK