Cifra Club

Transplante

Marília Mendonça

Cifra: Principal (violão e guitarra)
exibições 283.228
Tom: Ebm (forma dos acordes no tom de C#m) Capotraste na 2ª casa
[Intro] E  G#m7  A9

[TAB - Solo Introdução]

Parte 1 de 2
E|-----------------5/7~-2---2---2----------------------|
B|-----5---5---5----------0---0---0--------------------|
G|-2/4---4---4---4-------------------------------------|
D|-----------------------------------------------------|
A|-----------------------------------------------------|
E|-----------------------------------------------------|

Parte 2 de 2
E|-7\-0---0---0---0------------------------------------|
B|-x----0---0---0---0--5---5---------------------------|
G|-x-------------------4h6-6p4-------------------------|
D|-x---------------------------------------------------|
A|-----------------------------------------------------|
E|-----------------------------------------------------|

[Primeira parte]

E             E4       E
Outra vez, a sua boca fala
     F#m7(11)
E o coração desmente
                  E/G#  A9
E aí, como é que voc____ê se sente?

[Pré-refrão]

       A9
Só me conta como foi sem mim
             E
Na primeira farra
                  F#m7(11)
Quem deixou de beber
                 A9         E
E dirigiu por você até sua casa?

       A9
Só me conta quem vai dividir contigo
            E
O último pedaço
           C#m               A9     Am
E o outro lado do fone de ouvido, ô ô

[TAB - Dedilahdo Pré-refrão]

Parte 1 de 5
    A9
E|-------0-------------0--------------------|
B|-0-0-----0---0--0-0-----0---0-------------|
G|-2---2-----2----2---2-----2---------------|
D|-2--------------2-------------------------|
A|-0--------------0-------------------------|
E|------------------------------------------|

Parte 2 de 5
    E
E|-------0--------------0-------------------|
B|---------0---0----------0---0-------------|
G|-1-2-1-----1----1-2-1-----1---------------|
D|-2--------------2-------------------------|
A|-2--------------2-------------------------|
E|-0--------------0-------------------------|

Parte 3 de 5
    F#m7(11)       A9
E|-------0-------------0--------------------|
B|-0-0-----0---0--0-0-----0---0-------------|
G|-2---2-----2----2---2-----2---------------|
D|-4--------------2-------------------------|
A|-4--------------0-------------------------|
E|-2----------------------------------------|

Parte 4 de 5
    E
E|-------0--------------0-------------------|
B|---------0---0----------0---0-------------|
G|-1-2-1-----1----1-2-1-----1---------------|
D|-2--------------2-------------------------|
A|-2--------------2-------------------------|
E|-0--------------0-------------------------|

Parte 5 de 5
    A9
E|-------0--------0-------------------------|
B|-0-0-----0---0--0-------------------------|
G|-2---2-----2----2-------------------------|
D|-2--------------2-------------------------|
A|-0--------------0-------------------------|
E|------------------------------------------|

[Refrão]

E             G#m7                 A9
Esse coração aí, tá se fazendo de bobo
Am                    E
Ele gosta mesmo é de mim
              G#m7             A9
Esse coração aí, tá sendo ignorante
             Am
Pra me esquecer, vai precisar de um
       E
Transplante

              G#m7                 A9
Esse coração aí, tá se fazendo de bobo
Am                    E
Ele gosta mesmo é de mim
              G#m7             A9
Esse coração aí, tá sendo ignorante
             Am
Pra me esquecer, vai precisar de um
       E        G#m7   A9
Transplante, Ai ai, ai ai

[TAB - Solo]

Parte 1 de 2
E|-----------------5/7~-2---2---2----------------------|
B|-----5---5---5----------0---0---0--------------------|
G|-2/4---4---4---4-------------------------------------|
D|-----------------------------------------------------|
A|-----------------------------------------------------|
E|-----------------------------------------------------|

Parte 2 de 2
E|-7\-0---0---0---0------------------------------------|
B|-x----0---0---0---0--5---5---------------------------|
G|-x-------------------4h6-6p4-------------------------|
D|-x---------------------------------------------------|
A|-----------------------------------------------------|
E|-----------------------------------------------------|

[Pré-refrão]

       A9
Só me conta quem vai dividir contigo
            E
O último pedaço
           C#m               A9     Am
E o outro lado do fone de ouvido, ô ô

[Refrão]

E             G#m7                 A9
Esse coração aí, tá se fazendo de bobo
Am                    E
Ele gosta mesmo é de mim
              G#m7             A9
Esse coração aí, tá sendo ignorante
             Am
Pra me esquecer, vai precisar de um
       E
Transplante

              G#m7                 A9
Esse coração aí, tá se fazendo de bobo
Am                    E
Ele gosta mesmo é de mim
              G#m7             A9
Esse coração aí, tá sendo ignorante
             Am
Pra me esquecer, vai precisar de um
       E        G#m7   A9
Transplante, Ai ai, ai ai
             Am
Pra me esquecer, vai precisar de um
       E
Transplante

[TAB - Solo final]

Parte 1 de 2
E|-----------------5/7~-2---2---2----------------------|
B|-----5---5---5----------0---0---0--------------------|
G|-2/4---4---4---4-------------------------------------|
D|-----------------------------------------------------|
A|-----------------------------------------------------|
E|-----------------------------------------------------|

Parte 2 de 2
E|-7\-0---0---0---0------------------------------------|
B|-x----0---0---0---0----------------------------------|
G|-x-------------------4-4/5---------------------------|
D|-x---------------------------------------------------|
A|-----------------------------------------------------|
E|-----------------------------------------------------|
Acordes para:

    0 comentários

    mostrar mais comentários

    Conseguiu tocar?

    32 tocaram 18 ainda não

    Grave um vídeo tocando Transplante e mande pra gente!

    00:00 / 00:00
    outros vídeos desta música
    repetir qualidade Automático
    Outros vídeos desta música
    00:00 / 00:00
    Automático
    Capítulos
    • Tocando a música
    • Apresentação / Equipamentos
    • Acordes da introdução
    • Tocando introdução
    • Ritmo da introdução
    • Acordes primeira parte
    • Tocando primeira parte
    • Ritmo primeira parte
    • Acordes pré-refrão
    • Tocando pré-refrão
    • Ensinando pré-refrão
    • Pré-refrão - Parte 1 de 5
    • Pré-refrão - Parte 2 de 5
    • Pré-refrão - Parte 3 de 5
    • Pré-refrão - Parte 4 de 5
    • Pré-refrão - Parte 5 de 5
    • Ritmo pré-refrão
    • Acordes e ritmo do refrão
    • Tocando refrão
    • Dicas da repetição
    • Tocando repetição: pré-refrão - final
    • Tocando solo da introdução
    • Solo Introdução
    • Solo Introdução - Parte 1 de 2
    • Solo Introdução - Parte 2 de 2
    • Solo do refrão final
    • Solo final
    • Encerramento
    OK