Cifra Club

Lavender

Marillion

Cifra: Principal (violão e guitarra)
Selo Cifra Club: esta cifra foi revisada para atender aos critérios oficiais da nossa Equipe de Qualidade.
tom: A
[Dedilhado - Intro - 2x]

E|--0-----5-----4-----0-----0-----5-----4-----0--2--4---|
B|-----0-----0-----0-----0-----0-----0-----0------------|
G|------------------------------------------------------|
D|--------------------------0---------------------------|
A|------------------------------------------------------|
E|--0---------------------------------------------------|

E|--0-----5-----4-----0-----0-----5-----4-----0--2--4---|
B|-----2-----2-----2-----2-----2-----2-----2------------|
G|------------------------------------------------------|
D|------------------------------------------------------|
A|--4-----------------------0---------------------------|
E|------------------------------------------------------|

         E                                 E7/D
I was walking in the park dreaming of a spark
                C#m
When I heard the sprinklers whisper
                        A
Shimmer in the haze of summer lawns
                        E
Then I heard chiidren singing
                                  E7/D
They were running through the rainbowns
                     C#m
They were singing a song for you
                       A
Well it seemed to be a song for you
                      E                E7/D  C#m  A
The one I wanted to write for you,for you

E                          E7/D
Lavender  blue dilly dilly lavender green
C#m
When I am king dilly dilly
A
You will be queen
                  E
A penny for your thoughts my dear
                  E7/D
A penny for your thoughts my dear
    C#m                    A
I.o.u. for your love , I.O.U. for your love

E                          E7/D
Lavender green dilly dilly lavender  blue
C#m
When you love me dilly dilly

A
I will love you
                  E
A penny for your thoughts my dear
                  E7/D
A penny for your thoughts my dear
    C#m                    A
I.o.u. for your love , I.O.U. for your love

For your love

[Solo] E  E7/D  C#m  A

[Tab - Solo]

E|--16b--16--------------16b-16------------------------------------------|
B|------------17--------------------17-----------------------------------|
G|----------------16-16--------------------------------------------------|
D|-----------------------------------------------------------------------|
A|-----------------------------------------------------------------------|
E|-----------------------------------------------------------------------|

E|--16b--16--------------16b/16---------------------19-------------------|
B|------------17--------------------17---------17-19-----17b~~~----------|
G|----------------16-16----------------16/18--------------------18-------|
D|-----------------------------------------------------------------------|
A|-----------------------------------------------------------------------|
E|-----------------------------------------------------------------------|

E|--16b--16--------------16b-16-------------------------------------------|
B|------------17--------------------17-19b~~~-----------------------------|
G|----------------16-16---------------------------------------------------|
D|------------------------------------------------------------------------|
A|------------------------------------------------------------------------|
E|------------------------------------------------------------------------|

E|--16b--16--------------16b/16-----------------------16------------------|
B|------------17--------------------17---------17-19-----19b~~~~-17-------|
G|----------------16-16----------------16/18------------------------------|
D|------------------------------------------------------------------------|
A|------------------------------------------------------------------------|
E|------------------------------------------------------------------------|
Outros vídeos desta música
    15.208 exibições
      • ½ Tom
      • A
      • Bb
      • B
      • C
      • Db
      • D
      • Eb
      • E
      • F
      • F#
      • G
      • Ab
    • Adicionar à lista

    Afinação da cifra

    Afinador online

      0 comentários

      Ver todos os comentários

      Entre para o Cifra Club PRO

      Tenha acesso a benefícios exclusivos no App e no Site

      • Chega de anúncios

      • Mais recursos no app do Afinador

      • Atendimento Prioritário

      • Aumente seu limite de lista

      • Ajude a produzir mais conteúdo

      Cifra Club Pro

      Aproveite o Cifra Club com benefícios exclusivos e sem anúncios
      Cifra Club Pro
      Aproveite o Cifra Club com benefícios exclusivos e sem anúncios
      OK