Cifra Club

Neverland

Marillion

Cifra: Principal (violão e guitarra)
tom: G
02:24
Electric Solo
**************                move finger up and down
Low rake         loud rake       |
[---11---11---11-----11-10----------------------|---11-10------------------]
[--9----9----9------9------11----b------------8-|--9------11----b---rp-----]
[-9----9----9------9----------10-10~-~-~------8-|-9----------10-10~-~-8----]
[-----------------------------------------10----|-----------------------10-]
[-----------------------------------------------|--------------------------]
[-----------------------------------------------|--------------------------]

                                              b   b rp
[---11-10-----------------------|---11-10-----13--13--11----]
[--9------11----b---------------|--9------11-------------13-]
[-9----------10-10~-~-~-10~-~-~-|-9-------------------------]
[-------------------------------|---------------------------]
[-------------------------------|---------------------------]
[-------------------------------|---------------------------]


\\\\\\\\\\\\\\\\\\\\\\\\\\\\\\\\\\\\\\\\\\\\\\

this has a delay, of 3
03:21
[----------]
[-b-rp-----]
[-10--8----]
[-------10-]
[----------]
[----------]


\\\\\\\\\\\\\\\\\\\\\\\\\\\\\\\\\\\\\\\\\\\\\\
04:25
Acoustic Solo                                                     feedback
**************                                       h              comes in
[---------------|---------------|--------|------10-10-11---10---s--p------]
[--h---8--11----|--p------------|--------|--s-----------------11\13-11----]
[-7-8--------10-|-8-7-----------|--------|-8\10------------------------12-]
[---------------|-----10-8-10---|--------|--------------------------------]
[---------------|-------------8-|-8-10---|--------------------------------]
[---------------|---------------|------8-|--------------------------------]


[-----------|-----------------]
[---h-------|-----p-----------]
[-10-12-8-7-|----8-7----p-----]
[-----------|---------10-8-10-]
[-----------|-8---------------]
[-----------|-----------------]


\\\\\\\\\\\\\\\\\\\\\\\\\\\\\\\\\\\\\\\\\\\\\\

some feedback before this comes in
04:56                                                    this is
Electric Solo                                            slide or

**************                            UB   UB    b   whammy
[---11-10~-~-~--------------|---8----s--|-11---15---18-|--dive-]
[--9-----------8~-~-~-------|--8----8\6-|-14---18------|---s---]
[-9-----------------------8-|-8---------|--------------|--8\5--]
[---------------------10----|-----------|--------------|-------]
[---------------------------|-----------|--------------|-------]
[---------------------------|-----------|--------------|-------]


\\\\\\\\\\\\\\\\\\\\\\\\\\\\\\\\\\\\\\\\\\\\\\
06:19
[---11-10-----------------slowly-|---11-10------------------]
[--9------11----b-------b--r-----|--9------11----b---rp-----]
[-9----------10-10~-~-~-10-------|-9----------10-10~-~-8----]
[--------------------------------|-----------------------10-]
[--------------------------------|--------------------------]
[--------------------------------|--------------------------]


[---11-10-------------8------|--11-10------------8---p----------------------]
[--9------11----b-------b--b-|-9------11----b--8---11-8-brp-----------------]
[-9----------10-10------10---|9----------10-10----------10-8----8-----------]
[----------------------------|-------------------------------10----h---8----]
[----------------------------|------------------------------------8-10---10-]
[----------------------------|----------------------------------------------]

                                      07:51
              UB UB  07:05            UB UB
[-----------|-------|---11---10-----|-------]
[-----------|--8--8-|-8----8------8-|--8--8-]
[---p-------|-10-10-|----------10---|-10-10-]
[-10-8----8-|-------|---------------|-------]
[------10---|-------|---------------|-------]
[-----------|-------|---------------|-------]

08:16

[--11-10-------------|---11-10------------------|---11-10----------------]
[-9------11----b-----|--9------11----b---rp-----|--9------11----b-----b--]
[9----------10-10~-~-|-9----------10-10~-~-8----|-9----------10-10~-~-10-]
[--------------------|-----------------------10-|------------------------]
[--------------------|--------------------------|------------------------]
[--------------------|--------------------------|------------------------]

                      s     s          08:49
[---11-10---------8-11\13-15\18-18~-~-|-----------------|---p---------]
[--9------11-8-11---------------------|-b---------------|-11-10-------]
[-9-----------------------------------|-8---------------|-------10----]
[-------------------------------------|---10---------s--|----------10-]
[-------------------------------------|-----------6-6\1-|-------------]
[-------------------------------------|-------6-8-------|-------------]

08:59      h            s       b  rb
[----8-|-13-15-|----8-11\15-18-18--18-----s-|--h--p-------8-------------]
[-b----|-------|-10-------------------16--\-|-8-11-8--b-8---8--h--p-----]
[-10---|-------|----------------------------|--------10-------8-10-8----]
[------|-------|----------------------------|------------------------10-]
[------|-------|----------------------------|---------------------------]
[------|-------|----------------------------|---------------------------]

                       UB               09:46
[--------------------|----|------------|---------------------s------]
[--------------------|--8-|-----h------|-----------8----11-13\16-15-]
[--s---8---h---------|-10-|----8-10----|-------7-8---10-------------]
[-8\10----8-10-------|----|-10------10-|----10----------------------]
[--------------8--h--|----|------------|-10-------------------------]
[----------------6-8-|----|------------|----------------------------]

           low
[--------------------|-------18-15-|-------15--------]
[---s---16-15--------|-15-16-------|-15-16----15--13-]
[-15\17-------15--12-|-------------|-----------------]
[--------------------|-------------|-----------------]
[--------------------|-------------|-----------------]
[--------------------|-------------|-----------------]

10:19
Use Vol Pedal or Vol Nob On Guitar
[-------------------------------]
[-------------------------------]
[-------------------------------]
[-------------------------------]
[-6--5---s------6--5---s------3-]
[------6-\--3--------6-\--3-----]
00:00 / 00:00
Outros vídeos desta música
Repetir
Outros vídeos desta música
Composição de Ian Mosley / Marillion / Mark Kelly / Pete Trewavas / Steve Hogarth / Steve Rothery
Colaboração e revisão:
  • Hugo Lessa
595 exibições
    • ½ Tom
    • A
    • Bb
    • B
    • C
    • Db
    • D
    • Eb
    • E
    • F
    • F#
    • G
    • Ab
  • Adicionar à lista

    0 comentários

    Ver todos os comentários

    Conseguiu tocar?

    1 Tocaram 0 Ainda não

    Grave um vídeo tocando Neverland e nos envie!

    Entre para oCifra Club PRO

    Tenha acesso a benefícios exclusivos no App e no Site

    • Chega de anúncios

    • Prioridade de compra em lançamentos

    • Mais recursos no app do Afinador

    • Atendimento Prioritário

    • Descontos nos produtos Cifra Club

    • Ajude a produzir mais conteúdo

    00:00 / 00:00

    Cifra Club Pro

    Aproveite o Cifra Club com benefícios exclusivos e sem anúncios
    Cifra Club Pro
    Aproveite o Cifra Club com benefícios exclusivos e sem anúncios
    OK