Cifra Club

Aprenda

Coma Black

Marilyn Manson

Cifra: Principal (violão e guitarra)
tom: C
Dropped D tuning


Verse
e----------------------------------------------------------
B----------------------------------------------------------
G----------------------------------------------------------
D----------------------------------------------------------
A-------8V---------8h10------------------------------------
D--0-0------0--0----------0-0-0--12--12--0--0---12p0-12p0--

e----------------------------------------------------------
B----------------------------------------------------------
G----------------------------------------------------------
D----------------------------------------------------------
A-------8V---------8h10------------------------------------
D--0-0------0--0----------0-0-0--12--12----0--0------------

Pre-Chorus
e----------------------------------------------------------
B----------------------------------------------------------
G--10-10-10-10--12---7--7-7-7-7--5--10-10-10-10--12---7----
D--10-10-10-10--12---7--7-7-7-7--5--10-10-10-10--12---7----
A---8--8--8--8--10---5--5-5-5-5--3---8--8--8--8--10---5----
D----------------------------------------------------------

(continued)
e----------------------------------------------------------
B----------------------------------------------------------
G--7-7-7-7-7-7-7-------------------------------------------
D--7-7-7-7-7-7-7-------------------------------------------
A--5-5-5-5-5-5-5-------------------------------------------
D----------------------------------------------------------

Chorus
e----------------------------------------------------------
B----------------------------------------------------------
G----------------------------------------------------------
D----------------------------------------------------------
A--5-5---5-5-----5-5---5---5----5-5---5-5-----5-5---5---5--
D--0-0---0-0-----0-0---0---0----0-0---0-0-----0-0---0---0--

Riff 
e-------1312---11---10----------1312---11---10-----------
B----------------------------------------------------------
G----------------------------------------------------------
D--12-----------------------12-----------------------------
A----------------------------------------------------------
D----------------------------------------------------------

Post-Chorus
e----------------------------------------------------------
B----------------------------------------------------------
G----------------------------------------------------------
D--10--10--10-10-10-10-12---7--7--7-7-7-7--5-5----10--10---
A---8---8---8--8--8--8-10---5--5--5-5-5-5--3-3-----8---8---
D---0---0---0--0--0--0--0---0--0--0-0-0-0--0-0-----0---0---

(continued)
e----------------------------------------------------------
B----------------------------------------------------------
G----------------------------------------------------------
D--10--10--10-10-10-10-12---7--7--7-7-7-7--7-7-------------
A---8---8---8--8--8--8-10---5--5--5-5-5-5--5-5-------------
D---0---0---0--0--0--0--0---0--0--0-0-0-0--0-0-------------

Outro
e---------------17------------------20------------------17--
B--20--18--17----------20--18--17----------20--18--17-------
G-----------------------------------------------------------
D-----------------------------------------------------------
A-----------------------------------------------------------
D-----------------------------------------------------------

(continued)
e-----------------22----------------------------------------
B--20--18--17-----------------------------------------------
G-----------------------------------------------------------
D-----------------------------------------------------------
A-----------------------------------------------------------
D-----------------------------------------------------------



Verse
Pre-Chorus
Chorus, Riff
Post-Chorus
Verse
Pre-Chorus
Chorus, Riff
Verse, Riff
Chorus
Post-Chorus
Chorus, Riff 
Chorus, Riff, Outro
Composição de John 5 / Marilyn Manson / Twiggy Ramirez
Colaboração e revisão:
  • Sergio Morais
10.667 exibições
    • ½ Tom
    • A
    • Bb
    • B
    • C
    • Db
    • D
    • Eb
    • E
    • F
    • F#
    • G
    • Ab
  • Adicionar à lista

    0 comentários

    Ver todos os comentários

    Conseguiu tocar?

    0 Tocaram 0 Ainda não

    Grave um vídeo tocando Coma Black e nos envie!

    00:00 / 00:00
    outros vídeos desta música
    repetir qualidade Automático
    Outros vídeos desta música
    00:00 / 00:00
    Automático

    Cifra Club Pro

    Aproveite o Cifra Club com benefícios exclusivos e sem anúncios
    Cifra Club Pro
    Aproveite o Cifra Club com benefícios exclusivos e sem anúncios
    OK