Cifra Club

Aprenda

Coma white

Marilyn Manson

Cifra: Principal (violão e guitarra)
tom: C
Verse (Guitar 1, acoustic)        three times then:
e-------------------------------------------------------
B------0------0------0------0-----0---0-----------------
G----4------4------4------4-----5---5-------------------
D--7------7------7------7-------------------------------
A-------------------------------------------------------
E-------------------------------------------------------

(continued)
e-------------------------------------------------------
B-------0-----0-----0-----0-----0-----0-----0-----0-----
G--5/7-----7-----7-----7-----5-----5-----4-----4--------
D-------------------------------------------------------
A-------------------------------------------------------
E-------------------------------------------------------

Pre-Chorus (Guitar 2)
e--------------17---19----20---20-----------------------
B--13--12----------------------x-----------------------
G------------------------------17-----------------------
D-------------------------------------------------------
A-------------------------------------------------------
E-------------------------------------------------------

Chorus A (Guitar 1)
e-------------------------------------------------------
B-------------------------------------------------------
G-2-------5---------------------------------------------
D-2-(x8)--5-(x8)--5-------5-53-3-3-3-3-3-3-------------
A-0-------3-------5-(x8)--5-53-3-3-3-3-3-3-------------
E-----------------3-------3-31-1-1-1-1-1-1-------------

Chorus B (Guitar 2, synthasizer arranged for guitar)
e---------12--10----12-----------12--10----12-----------
B--12---------------------12----------------------------
G-------------------------------------------------------
D-------------------------------------------------------
A-------------------------------------------------------
E-------------------------------------------------------

Post-Chorus A (Guitar 1)
e-------------------------------------------------------
B-------------------------------------------------------
G-------------------------------------------------------
D-------------------------------------------------------
A--7-7-7-7---10--12---x-x--6-6-6-6--10--12--x-x--7-7-7-7
E--5-5-5-5---8---10---x-x--4-4-4-4--8---10--x-x--5-5-5-5

(continued)                    end on
e------------0-------------------|----------------------
B------------0-------------------|----------------------
G--7--5------2-------------------|----------------------
D--7--5------3---3-3-3-3-3-3-3---|---7------------------
A--5--3--0---3---3-3-3-3-3-3-3---|---7------------------
E--------0---1---1-1-1-1-1-1-1---|---5------------------

Post-Chorus B (Guitar 2)
e--17--17----15/17-----14--14--17--14--13--14--17-17p14-
B-------------x---------x---------------x---------------
G----14--14--12/14--12-11--------------10---------------
D-------------------------------------------------------
A-------------------------------------------------------
E-------------------------------------------------------

(continued)
e--17--17----15/17-----14--14--17--14--13---------------
B-------------x---------x---------------x---------------
G----14--14--12/14--12-11--------------10---------------
D------------------------------------------10h12--12h14-
A-------------------------------------------------------
E-------------------------------------------------------

Post-Chorus 2
e--17--17----15/17-----14--14--17--14--13--14--17-------
B-------------x---------x---------------x---------------
G----14--14--12/14--12-11--------------10---------------
D-------------------------------------------------10h12-
A-------------------------------------------------------
E-------------------------------------------------------

Riff
e-------------------------------------------------------
B-------------------------------------------------------
G--2-------0-------0------------------------------------
D--2-(x8)--2-(x8)--4-(x8)--3----------------------------
A--0-------3-------5-------3-(x8)-----------------------
E--------------------------1----------------------------

Outro 1                 three times then:
e----------------------------|--------------------------
B-----10--10-----------------|--------------------------
G------x---x-----------------|---7^---------------------
D--7---7---7---9--/10--9----|--------------------------
A----------------------------|--------------------------
E----------------------------|--------------------------

Outro 2
e-------------------------------------------------------
B-------------------------------------------------------
G-------------------------------------------------------
D--9--/10--9---7----5----------------------------------
A-------------------------------------------------------
E-------------------------------------------------------


Verse
Verse, Pre-Chorus
Chorus A,B
Post-Chorus A,B
Verse
Verse, Pre-Chorus
Chorus A,B
Post-Chorus A
Post-Chorus 2, B
Chorus B
Riff, Chorus B
Chorus A, B, Outro 1
Chorus A, B, Outro 2
Composição de Madonna Wayne Gacy / Marilyn Manson / Twiggy Ramirez / Zim Zum
45.203 exibições
    • ½ Tom
    • A
    • Bb
    • B
    • C
    • Db
    • D
    • Eb
    • E
    • F
    • F#
    • G
    • Ab
  • Adicionar à lista

    0 comentários

    Ver todos os comentários

    Conseguiu tocar?

    7 Tocaram 0 Ainda não

    Grave um vídeo tocando Coma white e nos envie!

    00:00 / 00:00
    outros vídeos desta música
    repetir qualidade Automático
    Outros vídeos desta música
    00:00 / 00:00
    Automático

    Cifra Club Pro

    Aproveite o Cifra Club com benefícios exclusivos e sem anúncios
    Cifra Club Pro
    Aproveite o Cifra Club com benefícios exclusivos e sem anúncios
    OK