Cifra Club

Aprenda

Disassociative

Marilyn Manson

Cifra: Principal (violão e guitarra)
tom: C
Album name  : Mechanical animals
Tunning     : Standart

INTRO
E|-----0--------------0-----------------------------------------------|
B|-------0----------3-1---------------------0-------------------------|
G|--------------------0-------------------0------------0--------------|
D|---2------------4---2-----------------0------------0--------4-2-2---|
A|-0------------5-----3---------------2------------3----------2-0-0---|
E|--------------------------------------------------------------------|

CHORUS (1)
E|--------------------------------------------------------------------|
B|--------------------------------------------------------------------|
G|--------------------------------------------------------------------|
D|-9-9-9-9------7-7-7-7------5-5-5-5------0-0-0-0---------------------|
A|-9-9-9-9------7-7-7-7------5-5-5-5------5-5-5-5---------------------|
E|-7-7-7-7------5-5-5-5------3-3-3-3------3-3-3-3---------------------|

CHORUS (2)
E|--------------------------------------------------------------------|
B|--------------------------------------------------------------------|
G|--------------------------------------------------------------------|
D|-3-3-3-3------7-7-7-7------10-10-10-10------7-7-7-7-----------------|
A|-3-3-3-3------7-7-7-7------10-10-10-10------7-7-7-7-----------------|
E|-1-1-1-1------5-5-5-5------8--8--8--8-------5-5-5-5-----------------|

BRIDGE
E|--------------------------------------------------------------------|
B|--------------------------------------------------------------------|
G|--------------------------------------------------------------------|
D|-3-3-3-3------2-2-2-2-----------------------------------------------|
A|-3-3-3-3------2-2-2-2-----------------------------------------------|
E|-1-1-1-1------0-0-0-0-----------------------------------------------|

OUTRO
E|--------------------------------------------------------------------|
B|--------------------------------------------------------------------|
G|--------------------------------------------------------------------|
D|--------------------------------------------------------------------|
A|-0-0-0-2-2-3-3-3----------------------------------------------------|
E|--------------------------------------------------------------------|

This song is :
Intro
Chorus (1)
Chorus (2)
Intro
Chorus (2)
Bridge
Chorus (2)
Outro


[ Letra ]

I can tell you what they say in space 
That our earth is too grey 
But when the spirit is so digital 
The body acts this way 

That world was killing me 
That world was killing me 
Disassociative 

The nervous systems down
The nervous systems down 
I know 

The nervous systems down 
The nervous systems down 
I know 

I can never get out of here 
I don't want to just float in fear 
A dead astronaut in space 

I can never get out of here 
I don't want to just float in fear 
A dead astronaut in space 

Sometimes we walk like we were shot 
Through our heads, my love 
We write a song in space like 
We are already  dead and gone 

Your world was killing me 
Your world was killing me 
Disassociative 

Your world was killing me 
Your world was killing me 
Disassociative 

I can never get out of here
I don't want to just float in fear 
A dead astronaut in space 

I can never get out of here 
I don't want to just float in fear 
A dead astronaut in space 

The nervous systems down
The nervous systems down
The nervous systems down
The nervous systems down 

I can never get out of here 
I don't want to just float in fear 
A dead astronaut in space 

I can never get out of here 
I don't want to just float in fear 
A dead astronaut in space
Composição de Madonna Wayne Gacy / Marilyn Manson / Twiggy Ramirez / Zim Zum
Colaboração e revisão:
  • Gabriel Pinto
4.992 exibições
    • ½ Tom
    • A
    • Bb
    • B
    • C
    • Db
    • D
    • Eb
    • E
    • F
    • F#
    • G
    • Ab
  • Adicionar à lista

    0 comentários

    Ver todos os comentários

    Conseguiu tocar?

    3 Tocaram 0 Ainda não

    Grave um vídeo tocando Disassociative e nos envie!

    00:00 / 00:00
    outros vídeos desta música
    repetir qualidade Automático
    Outros vídeos desta música
    00:00 / 00:00
    Automático

    Cifra Club Pro

    Aproveite o Cifra Club com benefícios exclusivos e sem anúncios
    Cifra Club Pro
    Aproveite o Cifra Club com benefícios exclusivos e sem anúncios
    OK