Cifra Club

If I Was Your Vampire

Marilyn Manson

Cifra: Principal (violão e guitarra)
tom: C
E|--------------------------------------------------|
B|--------------------------------------------------|
G|--------------------------------------------------|
D|--------------------------------------------------|
A|---2---3----2---3------2---3--2--0--5--3--2-------|
E|-0---0----0---0------0---0---0--0--0--0--0--------|    (4x)

E|--------------------------------------------------|
B|--------------------------------------------------|
G|---4---5----4---5------4---5-4-2-7-5-4------------|
D|-2---2----2---2------2---2------------------------|
A|--------------------------------------------------|
E|--------------------------------------------------|  (2x)

E|--------------------------------------------------|
B|--------------------------------------------------|
G|--------------------------------------------------|
D|--------------------------------------------------|
A|---2---3----2---3------2---3--2--0--5--3--2-------|
E|-0---0----0---0------0---0---0--0--0--0--0--------|    (3x)

E|--------------------------------------------------|
B|--------------------------------------------------|
G|---4---5----4---5------4---5-4-2-7-5-4------------|
D|-2---2----2---2------2---2------------------------|
A|--------------------------------------------------|
E|--------------------------------------------------|  (2x)

E|-10-10-10-10-10-----------------------------------|
B|-11-11-11-11-11-13-13-13-13-13-11-11-11-11-11-----|
G|----------------14-14-14-14-14-12-12-12-12-12-----|
D|--------------------------------------------------|
A|--------------------------------------------------|
E|--------------------------------------------------|  (2x)

E|--------------------------------------------------|
B|--------------------------------------------------|
G|--------------------------------------------------|
D|--------------------------------------------------|
A|---2---3----2---3------2---3--2--0--5--3--2-------| (1x)
E|-0---0----0---0------0---0---0--0--0--0--0--------|  

E|--------------------------------------------------|
B|--------------------------------------------------|
G|--------------------------------------------------|
D|--------------------------------------------------|
A|---2---3----2---3---2---3--2--0--5--3--2----2---2-| (1x)
E|-0---0----0---0---0---0---0--0--0--0--0---0---0---| 

E|--------------------------------------------------|
B|--------------------------------------------------|
G|---4---5----4---5------4---5-4-2-7-5-4------------|
D|-2---2----2---2------2---2------------------------|
A|--------------------------------------------------|
E|--------------------------------------------------|  (4x)

E|--------------------------------------------------|
B|--------------------------------------------------|
G|-4444444-4/7-66666666-----------------------------|
D|-2222222-2/5-44444444-----------------------------| (repita até o final)
A|--------------------------------------------------|
E|--------------------------------------------------|

00:00 / 00:00
Outros vídeos desta música
Repetir
Outros vídeos desta música
Composição de Marilyn Manson / Tim Skold
Colaboração e revisão:
  • webber gonçalves
4.574 exibições
    • ½ Tom
    • A
    • Bb
    • B
    • C
    • Db
    • D
    • Eb
    • E
    • F
    • F#
    • G
    • Ab
  • Adicionar à lista

    0 comentários

    Ver todos os comentários

    Conseguiu tocar?

    14 Tocaram 0 Ainda não

    Grave um vídeo tocando If I Was Your Vampire e nos envie!

    00:00 / 00:00

    Cifra Club Pro

    Aproveite o Cifra Club com benefícios exclusivos e sem anúncios
    Cifra Club Pro
    Aproveite o Cifra Club com benefícios exclusivos e sem anúncios
    OK