Cifra Club

Aprenda

Kill4me

Marilyn Manson

Cifra: Principal (violão e guitarra)
tom: G
[Intro]

E|-----------------------------------------------12-------------------------|
B|-----------------------------------------------12-------------------------|
G|-----------------------------------------------12-------------xx12--------|
D|----5-7-7b-----5-5h7p5-----5-7-7b---------5--------5-5h7p5----xx12--------|
A|-/7---------/7----------/7---------5-6-7----7-----------------xx10--5-6-7-|
E|--------------------------------------------------------------------------|

[Verso]

E|-----------------------------------------------------12------------------|
B|-----------------------------------------------------12------------------|
G|-----------------------------------------------------12-------------xx12-|
D|----------5-7-7b-----5-5h7p5-----5-7-7b---------5--------5-5h7p5----xx12-|
A|-------/7---------/7----------/7---------5-6-7----7-----------------xx10-|
E|-------------------------------------------------------------------------|

[Coro 1]

E|---------------------------------------------------------------------|
B|---------------------------------------------------------------------|
G|-9-9-9-9-9-9-9-9-7-7-5-5-5-5-5-5-5-5-------------------------4-4-4-4-|
D|-9-9-9-9-9-9-9-9-7-7-5-5-5-5-5-5-5-5-7-7-7-7-7-7-7-7-5-5-5-5-4-4-4-4-|
A|-7-7-7-7-7-7-7-7-5-5-3-3-3-3-3-3-3-3-7-7-7-7-7-7-7-7-5-5-5-5-2-2-2-2-|
E|-------------------------------------5-5-5-5-5-5-5-5-3-3-3-3---------|

E|---------------------------------------------------------------------|
B|---------------------------------------------------------------------|
G|-9-9-9-9-9-9-9-9-5-5-5-5-5-5-5-5-5-5---------------------------------|
D|-9-9-9-9-9-9-9-9-7-7-5-5-5-5-5-5-5-5-7-7-7-7-7-7-7-7-5-5-5-5-4-4-4-4-|
A|-7-7-7-7-7-7-7-7-5-5-3-3-3-3-3-3-3-3-7-7-7-7-7-7-7-7-5-5-5-5-4-4-4-4-|
E|-------------------------------------5-5-5-5-5-5-5-5-3-3-3-3-2-2-2-2-|

[Pre Coro]

E|------------------------------------------|
B|------------------------------------------|
G|------------------------------------------|
D|----5-7-7b-----5-5h7p5-----5-7-7b---------|
A|-/7---------/7----------/7---------5-6-7--|
E|------------------------------------------|

[Verso 2]

E|-----------------------------------------------------------------------|
B|-------12-12-12-12-11\----10-10-10-10-8\----12-12-12-12-12-11-/10g8----|
G|--------------------------------------------------------------------9--|
D|-----------------------------------------------------------------------|
A|-----------------------------------------------------------------------|
E|-----------------------------------------------------------------------|

E|----------12-xx12-xx12-xx12-|
B|----------12-xx12-xx12-xx12-|
G|----------12-xx12-xx12-xx12-|
D|----------12-xx12-xx12-xx12-|
A|----------------------------|
E|----------------------------|

E|-----------------------------------------------12-------------------|
B|-----------------------------------------------12-------------------|
G|-----------------------------------------------12--------------xx12-|
D|----5-7-7b-----5-5h7p5-----5-7-7b---------5--------5-5h7p5-----xx12-|
A|-/7---------/7----------/7---------5-6-7----7------------------xx10-|
E|--------------------------------------------------------------------|

[Coro 2]

E|---------------------------------------------------------------------|
B|---------------------------------------------------------------------|
G|-9-9-9-9-9-9-9-9-7-7-5-5-5-5-5-5-5-5-------------------------4-4-4-4-|
D|-9-9-9-9-9-9-9-9-7-7-5-5-5-5-5-5-5-5-7-7-7-7-7-7-7-7-5-5-5-5-4-4-4-4-|
A|-7-7-7-7-7-7-7-7-5-5-3-3-3-3-3-3-3-3-7-7-7-7-7-7-7-7-5-5-5-5-2-2-2-2-|
E|-------------------------------------5-5-5-5-5-5-5-5-3-3-3-3---------|

E|----------------------------------------------------------------------|
B|----------------------------------------------------------------------|
G|-9-9-9-9-9-9-9-9-7-7-5-5-5-5-5-5-5-5----------------------------------|
D|-9-9-9-9-9-9-9-9-7-7-5-5-5-5-5-5-5-5-7-7-7-7-7-7-7-7-5-5-5-5-4-4-4-4--|
A|-7-7-7-7-7-7-7-7-5-5-3-3-3-3-3-3-3-3-7-7-7-7-7-7-7-7-5-5-5-5-4-4-4-4--|
E|-------------------------------------5-5-5-5-5-5-5-5-3-3-3-3-2-2-2-2--|

[Ponte]       

E|----------------------------------------------------------|
B|----------------------------------------------------------|
G|----------------------------------------------------------|
D|-----------------9\7-7p5h7p5-5\3\2------------------------|
A|-7p5h7p5-7\5\3-----------------------7/9-10p9h10p9-10p9\7-|
E|----------------------------------------------------------|

E|-------------------------------------------------------|
B|-------------------------------------------------------|
G|-------------------------------------------------------|
D|-9\7-7p5h7p5-5\3\2-------------------9\7-7p5h7p5-5\3\2-|
A|---------------------7p5h7p5-7\5\3---------------------|
E|-------------------------------------------------------|

E|---------------------||---------------------||----------------------|
B|---------------------||---------------------||----------------------|
G|-9----7-5----4-2-----||-9----7-5----4-2-----||-9----7-5-5-5-5-5-4-2-|
D|-9----7-5----4-2-----||-9----7-5----4-2-----||-9----7-5-5-5-5-5-4-2-|
A|-7----5-3----2-0-----||-7----5-3----2-0---0-||-7----5-3-3-3-3-3-2-0-|
E|---------------------||---------------------||----------------------|

[Coro 3]

E|---------------------------------------------------------------------|
B|---------------------------------------------------------------------|
G|-9-9-9-9-9-9-9-9-7-7-5-5-5-5-5-5-5-5-------------------------4-4-4-4-|
D|-9-9-9-9-9-9-9-9-7-7-5-5-5-5-5-5-5-5-7-7-7-7-7-7-7-7-5-5-5-5-4-4-4-4-|
A|-7-7-7-7-7-7-7-7-5-5-3-3-3-3-3-3-3-3-7-7-7-7-7-7-7-7-5-5-5-5-2-2-2-2-|
E|-------------------------------------5-5-5-5-5-5-5-5-3-3-3-3---------|

E|---------------------------------------------------------------------||
B|---------------------------------------------------------------------||
G|-9-9-9-9-9-9-9-9-7-7-5-5-5-5-5-5-5-5---------------------------------||
D|-9-9-9-9-9-9-9-9-7-7-5-5-5-5-5-5-5-5-7-7-7-7-7-7-7-7-5-5-5-5-4-4-4-4-||
A|-7-7-7-7-7-7-7-7-5-5-3-3-3-3-3-3-3-3-7-7-7-7-7-7-7-7-5-5-5-5-4-4-4-4-||
E|-------------------------------------5-5-5-5-5-5-5-5-3-3-3-3-2-2-2-2-||

E|-----------------------------------------------12-------------------------|
B|-----------------------------------------------12-------------------------|
G|-----------------------------------------------12-------------xx12--------|
D|----5-7-7b-----5-5h7p5-----5-7-7b---------5--------5-5h7p5----xx12--------|
A|-/7---------/7----------/7---------5-6-7----7-----------------xx10--5-6-7-|
E|--------------------------------------------------------------------------|

[Final]

E|-------------------||-------------------|
B|-------------------||-------------------|
G|-------------------||-------------------|
D|-------------------||-------------------|
A|-------------------||-------------------|
E|-5\0--0-0--0-3/4-b-||-5\0--0-0--0-3\2p0-|
Composição de Marilyn Mason / Tyler Bates
Colaboração e revisão:
  • Luis Ramírez
1.138 exibições
    • ½ Tom
    • A
    • Bb
    • B
    • C
    • Db
    • D
    • Eb
    • E
    • F
    • F#
    • G
    • Ab
  • Adicionar à lista

    0 comentários

    Ver todos os comentários

    Conseguiu tocar?

    1 Tocaram 0 Ainda não

    Grave um vídeo tocando Kill4me e nos envie!

    00:00 / 00:00
    outros vídeos desta música
    repetir qualidade Automático
    Outros vídeos desta música
    00:00 / 00:00
    Automático

    Cifra Club Pro

    Aproveite o Cifra Club com benefícios exclusivos e sem anúncios
    Cifra Club Pro
    Aproveite o Cifra Club com benefícios exclusivos e sem anúncios
    OK