Cifra Club

mOBSCENE

Marilyn Manson

Cifra: Principal (violão e guitarra)
Tom: C
Afinação Metal 6ª Corda em D (Ré)


Chorus 1
e----------------------------------------------------------
B----------------------------------------------------------
G----------------------------------------------------------
D--2-2-2--5-5-0-7---0-5-0---0-2-0--------------------------
A--2-2-2--5-5-0-7---0-5-0---0-2-0--------------------------
D--2-2-2--5-5-0-7---0-5-0---0-2-0--------------------------


Riff
e----------------------------------------------------------
B----------------------------------------------------------
G---9^-\------9^-\-------9^-\------9^-\--------------------
D----------------------------------------------------------
A----------------------------------------------------------
D----------------------------------------------------------


Pre-Chorus
e--13-13-13-13-13-13-13-13---12-12-12-12-------------------
B----------------------------------------------------------
G----------------------------------------------------------
D----------------------------------------------------------
A----------------------------------------------------------
D----------------------------------------------------------


Chorus 2 (Faça 2 vezes)
e----------------------------------------------------------
B----------------------------------------------------------
G----------------------------------------------------------
D--7-7-7-7--10-10-10-10--7-7-7-7--10-10-10-10--------------
A--7-7-7-7--10-10-10-10--7-7-7-7--10-10-10-10--------------
D--7-7-7-7--10-10-10-10--7-7-7-7--10-10-10-10--------------
("You want committment?")

(continua)
e----------------------------------------------------------
B----------------------------------------------------------
G----------------------------------------------------------
D--7-7-7-7--10-10-10-10--8-8-8-8-8-8-8-8-------------------
A--7-7-7-7--10-10-10-10--8-8-8-8-8-8-8-8-------------------
D--7-7-7-7--10-10-10-10--8-8-8-8-8-8-8-8-------------------


Post-Chorus ( Coloquei 1x para que você abafe no traste 1 sem apertar nada na casa, é so para dar um peso na música igual ao JOHN 5) 
e----------------------------------------------------------
B----------------------------------------------------------
G----------------------------------------------------------
D--1x-1x-1x-1x-1x--0--2--0---1x-1x-1x-1x-1x--0--2--0-------
A--1x-1x-1x-1x-1x--0--2--0---1x-1x-1x-1x-1x--0--2--0-------
D--1x-1x-1x-1x-1x--0--2--0---1x-1x-1x-1x-1x--0--2--0-------
("Be obscene. Be, be obscene.")


Outro
e----------------------------------------------------------
B----------------------------------------------------------
G----------------------------------------------------------
D--2-2-2--5-5-0-7---7-7-7-7-7-7-7-7-7-7-7-7-7-7-7-7--------
A--2-2-2--5-5-0-7---7-7-7-7-7-7-7-7-7-7-7-7-7-7-7-7--------
D--2-2-2--5-5-0-7---7-7-7-7-7-7-7-7-7-7-7-7-7-7-7-7--------

(continua)
e----------------------------------------------------------
B----------------------------------------------------------
G----------------------------------------------------------
D--2-2-2--5-5--2-2-----------------------------------------
A--2-2-2--5-5--2-2-----------------------------------------
D--2-2-2--5-5--2-2-----------------------------------------


Chorus 1
Chorus 1, Riff
Pre-Chorus
Chorus 1, Riff
Chorus 2
Post-Chorus
Pre-Chorus, Riff
Chorus 1, Riff
Chorus 2
Post-Chorus
Chorus 2
Chorus 1
Outro

_______________________________________________________







Versão 2
-======-

Afinação: Drop D



Intro/Refrão
                                                            
E -------------------------------------------------|
B -------------------------------------------------|
G -------------------------------------------------|
D -2--2--2--5--5--2--7------2--2--5--2----0--2--0--|
A -2--2--2--5--5--2--7------2--2--5--2----0--2--0--|
D -2--2--2--5--5--2--7------2--2--5--2----0--2--0--|



Toca em várias partes:

Com trêmulo

E -13-13-13-13-13-13-12-12-12-12-12----------------|
B -------------------------------------------------|
G -------------------------------------------------|
D -------------------------------------------------|
A -------------------------------------------------|
D -------------------------------------------------|



Verse1:
E -------------------------------------------------|
B -------------------------------------------------|
G -------------------------------------------------|
D -------------------------------------------------|
A -------------------------------------------------|
D -0-2-0-------0-2-0-------0-2-0-------------------|


Verse2:
E -------------------------------------------------|
B -------------------------------------------------|
G -------------------------------------------------|
D -0-2-0-------0-2-0-------0-2-0-------------------|
A -0-2-0-------0-2-0-------0-2-0-------------------|
D -0-2-0-------0-2-0-------0-2-0-------------------|



Bridge
                                                              
E ------------------------------------------------------------|
B ------------------------------------------------------------|
G ------------------------------------------------------------|
D --10--10--10--10--10--10--10--10----7--7--7--7--7--7--7--7--|
A --10--10--10--10--10--10--10--10----7--7--7--7--7--7--7--7--|
D --10--10--10--10--10--10--10--10----7--7--7--7--7--7--7--7--|

  ------------------------------------------------------------|
  ------------------------------------------------------------|
  ------------------------------------------------------------|
  --10--10--10--10--10--10--10--10----7--7--7--7--7--7--7--7--|
  --10--10--10--10--10--10--10--10----7--7--7--7--7--7--7--7--|
  --10--10--10--10--10--10--10--10----7--7--7--7--7--7--7--7--|
                                                              
  ------------------------------------------------------------|
  ------------------------------------------------------------|
  ------------------------------------------------------------|
  --10--10--10--10--10--10--10--10----8--8--8--8--8--8--8--8--|
  --10--10--10--10--10--10--10--10----8--8--8--8--8--8--8--8--|
  --10--10--10--10--10--10--10--10----8--8--8--8--8--8--8--8--|
                                                     
  --------------------------|
  --------------------------|
  --------------------------|
  --8--8--8--8--8--8--8--8--|
  --8--8--8--8--8--8--8--8--|
  --8--8--8--8--8--8--8--8--|



Ouçam a música q todas as partes estão na cifra.
exibições 25.061
Acordes para:
    Composição: John 5 / Marilyn Manson Colaboração e revisão:
    • João Paulo

    0 comentários

    mostrar mais comentários

    Conseguiu tocar?

    3 tocaram 0 ainda não

    Grave um vídeo tocando mOBSCENE e mande pra gente!

    00:00 / 00:00
    outros vídeos desta música
    repetir qualidade Automático
    Outros vídeos desta música
    00:00 / 00:00
    Automático
    OK