Cifra Club

Aprenda

This Is Halloween

Marilyn Manson

Cifra: Principal (violão e guitarra)
tom: G
Intro:
E|----------------------------------------------------------------|
B|----------------------------------------------------------------|
G|----------------------------------------------------------------|
D|-2-4-2-4-2-4-2-4-|-5--5--5--5-6-3--3--3--3-6-5/9---9-7-5-7-3--2-|
A|-2-4-2-4-2-4-2-4-|-5--5--5--5-6-3--3--3--3-6-5/9---9-7-5-7-3--2-|
E|-0-2-0-2-0-2-0-2-|-3--3--3--3-4-1--1--1--1-4-3/7---7-5-3-5-1--0-|

Boys and girls of every age
E|--------------------------------------------------------|
B|--------------------------------------------------------|
G|--------------------------------------------------------|
D|-5--5--5--5--5-6-3--3-----------------------------------|
A|-5--5--5--5--5-6-3--3-----------------------------------|
E|-3--3--3--3--3-4-1--1-----------------------------------|

Wouldn't you like to see something strange?
E|--------------------------------------------------------|
B|--------------------------------------------------------|
G|--------------------------------------------------------|
D|-333-333-3-6-5------------------------------------------|
A|-333-333-3-6-5------------------------------------------|
E|-111-111-1-4-3------------------------------------------|

Come with us and you will see
E|--------------------------------------------------------|
B|--------------------------------------------------------|
G|--------------------------------------------------------|
D|-5--5--5--6--8--6--5------------------------------------|
A|-5--5--5--6--8--6--5------------------------------------|
E|-3--3--3--4--6--4--3------------------------------------|

This our town of Halloween.
E|--------------------------------------------------------|
B|--------------------------------------------------------|
G|--------------------------------------------------------|
D|-3--3--3--6-5-3-2---------------------------------------|
A|-3--3--3--6-5-3-2---------------------------------------|
E|-1--1--1--4-3-1-0---------------------------------------|

THIS IS HALLOWEEN!|THIS IS HALLOWEEN!
E|----------------|----------------------------------------|
B|----------------|----------------------------------------|
G|----------------|----------------------------------------|
D|-9-9-9-7-6------|-9-9-9-7-6------------------------------|
A|-9-9-9-7-6------|-9-9-9-7-6------------------------------|
E|-7-7-7-5-4------|-7-7-7-5-4------------------------------|

Pumpkins scream in the dead of night!
E|----------------------------------------------------------|
B|----------------------------------------------------------|
G|----------------------------------------------------------|
D|-9--7--5-3-3-2---7-7--------------------------------------|
A|-9--7--5-3-3-2---7-7--------------------------------------|
E|-7--5--3-1-1-0---5-5--------------------------------------|

THIS IS HALLOWEEN!|EVERYBODY MAKE A SCENE!
E|----------------|----------------------------------------|
B|----------------|----------------------------------------|
G|----------------|----------------------------------------|
D|-9-9-976--------|-9999-976-------------------------------|
A|-9-9-976--------|-9999-976-------------------------------|
E|-7-7-754--------|-7777-754-------------------------------|

Trick or Treat 'till the neighboors gunna die of fright.
E|--------------------------------------------------------|
B|--------------------------------------------------------|
G|--------------------------------------------------------|
D|-9--7--5-3-3-2-2-3-3-5-5-7------------------------------|
A|-9--7--5-3-3-2-2-3-3-5-5-7------------------------------|
E|-7--5--3-1-1-0-0-1-1-3-3-5------------------------------|

It's our town!| EVERYBODY SCREAM!
E|------------|-------------------------------------------|
B|------------|-------------------------------------------|
G|------------|-------------------------------------------|
D|-7-7-7/9----|-9999-9/12---------------------------------|
A|-7-7-7/9----|-9999-9/12---------------------------------|
E|-5-5-5/7----|-7777-7/9----------------------------------|

In this town of Halloween...
E|--------------------------------------------------------|
B|--------------------------------------------------------|
G|--------------------------------------------------------|
D|-7-9-7-6-5-3-2------------------------------------------|
A|-7-9-7-6-5-3-2------------------------------------------|
E|-5-7-5-4-3-1-0------------------------------------------|
Composição de Danny Elfman
Colaboração e revisão:
  • Gabriel Tavares
20.891 exibições
    • ½ Tom
    • A
    • Bb
    • B
    • C
    • Db
    • D
    • Eb
    • E
    • F
    • F#
    • G
    • Ab
  • Adicionar à lista

    0 comentários

    Ver todos os comentários

    Conseguiu tocar?

    6 Tocaram 1 Ainda não

    Grave um vídeo tocando This Is Halloween e nos envie!

    00:00 / 00:00
    outros vídeos desta música
    repetir qualidade Automático
    Outros vídeos desta música
    00:00 / 00:00
    Automático

    Cifra Club Pro

    Aproveite o Cifra Club com benefícios exclusivos e sem anúncios
    Cifra Club Pro
    Aproveite o Cifra Club com benefícios exclusivos e sem anúncios
    OK