Cifra Club

User Friendly

Marilyn Manson

Cifra: Principal (violão e guitarra)
Selo Cifra Club: esta cifra foi revisada para atender aos critérios oficiais da nossa Equipe de Qualidade.
tom: A
(riff - pre-chorus)
-12----------12-----12----------12----15----|-----|
----12-15-12----12-----12-15-12----12----12-|-----|
--------------------------------------------|-----|
--------------------------------------------|-x-x-|
--------------------------------------------|-x-x-|
--------------------------------------------|-x-x-|   (2x)

(riff 2 - chorus)
--------------------------------------------------------------------|
--------------------------------------------------------------------|
-4-4-4-4-4-4-4-4--6-6-6-6-7-7-9-9--4-4-4-4-4-4-4-4--6-6-6-6-7-7-9-9-|
-4-4-4-4-4-4-4-4--6-6-6-6-7-7-9-9--4-4-4-4-4-4-4-4--6-6-6-6-7-7-9-9-|
-2-2-2-2-2-2-2-2--4-4-4-4-5-5-7-7--2-2-2-2-2-2-2-2--4-4-4-4-5-5-7-7-|

(riff 3 - post chorus)
---------------------------|
---------------------------|
-9-9--9-7--11-11--11-9--9^-|
-9-9--9-7--11-11--11-9-----|
-7-7--7-5---9--9---9-7-----|
---------------------------|

(riff 4 - bridge chorus with the electronic voice)
-7-----10--7-----7-------|
---7-8-------7-7---------| x4
--------------------9--7-|
-------------------------|
-------------------------|
-------------------------|

(intro)
(verse bass)
(riff 1)
(riff 2 - 2x)
(riff 3)
(verse)
(riff 1)
(riff 2 - 2x)
(riff 3)
(riff 4 - 4x)
(riff 2 - 2x)
Outros vídeos desta música
    437 exibições
      • ½ Tom
      • A
      • Bb
      • B
      • C
      • Db
      • D
      • Eb
      • E
      • F
      • F#
      • G
      • Ab
    • Adicionar à lista

    Afinação da cifra

    Afinador online

      0 comentários

      Ver todos os comentários

      Entre para o Cifra Club PRO

      Tenha acesso a benefícios exclusivos no App e no Site

      • Chega de anúncios

      • Mais recursos no app do Afinador

      • Atendimento Prioritário

      • Aumente seu limite de lista

      • Ajude a produzir mais conteúdo

      Cifra Club Pro

      Aproveite o Cifra Club com benefícios exclusivos e sem anúncios
      Cifra Club Pro
      Aproveite o Cifra Club com benefícios exclusivos e sem anúncios
      OK