Cifra Club

Grávida

Marina Lima

Cifra: Principal
exibições 19.308
Tom: C
Solo:
E|-----------------------------------------------------------------------------
B|---------------5--5------------5-5---5-6-6---6-6---6-5--5------6-6---6-8-5---
G|-----5---4-5-7------7-5-4----------5-------------7--------7-5------7---------
D|-5-7---7------------------7-5------------------------------------------------
A|-----------------------------------------------------------------------------
E|-----------------------------------------------------------------------------

E|-----------5------------5-5---5-7---------------------------------
B|-------------8-6-5----------6-----8---6-8-6-5-5---------5-6-6-----
G|-5h7p5-------------7-5--------------------------4-5-5-------------
D|------------------------------------------------------------------
A|------------------------------------------------------------------
E|------------------------------------------------------------------


Marina Lima /Arnaldo Antunes

[Intro:] G7(4) G7

G7(4) G7     G7(4)
Eu tô grávida
               G7
Grávida de um beija-flor
C7(4)       C7
Grávida de terra
C7(4)        C7
De um liquidificador
         F7
E vou parir
                         Em      A7
Um terremoto, uma bomba, uma cor
           Am
Uma locomotiva a vapor
    E/G#
Um corredor

Eu tô grávida
Esperando um avião
Cada vez mais grávida
Estou grávida de chão
E vou parir
Sobre a cidade
Quando a noite contrair
E quando o sol dilatar
E/G# G7 C
Dar à luz

Eu tô grávida
De uma nota musical
De um automóvel
De uma árvore de Natal
E vou parir
Uma montanha, um cordão umbilical, um anticoncepcional
Um cartão postal

Eu tô grávida
Esperando um furacão, um fio de cabelo, uma bolha de sabão
E vou parir
Sobre a cidade
Quando a noite contrair
E quando o sol dilatar
Vou dar a luz
Acordes para:

    0 comentários

      mostrar mais comentários

      Conseguiu tocar?

      0tocaram0ainda não

      Grave um vídeo tocando Grávida e mande pra gente!

      00:00 / 00:00
      outros vídeos desta música
      repetirqualidadeAutomático
      Outro vídeos desta música
        00:00 / 00:00
        OK