Cifra Club

Aprenda

Dr. Mario - Chill

Mario Bros

Cifra: Principal (violão e guitarra)
tom: D
E |-----15--------15----------|--14--------14------------|
B |-----17--------17----------|--16--------16------------|
G |---------------------------|--------------------------|
D |---------------------------|--------------------------|
A |---------------------------|--------------------------|
E |---------------------------|--------------------------|

-----13--------13----------|--12------------------||------5--------5----------|
-----15--------15----------|--13------------------||------5--------5----------|
---------------------------|----------------------||*-------------------------|
---------------------------|----------------------||*-------------------------|
---------------------------|----------------------||--------------------------|
---------------------------|----------------------||--------------------------|

--5--------5------------|-----5--------5----------|--3--------5------------|
--5--------5------------|-----5--------5----------|--3--------5------------|
------------------------|-------------------------|------------------------|
------------------------|-------------------------|------------------------|
------------------------|-------------------------|------------------------|
------------------------|-------------------------|------------------------|

-----5--------5----------|--5--------5------------|-----5--------5----------|
-----5--------5----------|--5--------5------------|-----5--------5----------|
-------------------------|------------------------|-------------------------|
-------------------------|------------------------|-------------------------|
-------------------------|------------------------|-------------------------|
-------------------------|------------------------|-------------------------|

-------------------------------------------|----------------------------|
-------------------------------------------|-----5-------5--------------|
-------------------------------------------|---------5-------5----------|
-------------------------------------------|----------------------------|
-------------------------------------------|----------------------------|
--13-12-11-10-9-8-7-6-5-4-3-2-1------------|----------------------------|

-----------------------------|-------------------------------|
-----------------------------|-----5-------5---8-----7-------|
----------5-------5----------|---------5-----------------7---|
--7---7-------7--------------|-------------------------------|
-----------------------------|-------------------------------|
-----------------------------|-------------------------------|

---------------------|--------------------------------|
--6------------------|-----5---5-------5--------------|
---------------------|-------------5-------5----------|
---------------------|--------------------------------|
---------------------|--------------------------------|
---------------------|--------------------------------|

-----------------------------|-------------------------------|
-----------------------------|-----5-------5---8-----7-------|
----------5------------------|---------5-----------------7---|
--7---7-------7--------------|-------------------------------|
------------------7----------|-------------------------------|
-----------------------------|-------------------------------|

---------------------|----5-----5-----5---5-----5-----5-|
--5------------------|----------------------------------|
---------------------|--2---2-2---2-2---2---2-2---2-2---|
---------------------|----------------------------------|
---------------------|----------------------------------|
---------------------|----------------------------------|

----5-----5-----5---5-----5-----5-|----5-----5-----5---5-----5-----5-|
----------------------------------|----------------------------------|
--2---2-2---2-2---2---2-2---2-2---|--2---2-2---2-2---2---2-2---2-2---|
----------------------------------|----------------------------------|
----------------------------------|----------------------------------|
----------------------------------|----------------------------------|

----5-----5-----5---5-----5-----|-----17---17--------17-----17--------|
--------------------------------|---------------17---------------17---|
--2---2-2---2-2---2---2-2-------|-------------------------------------|
--------------------------------|-------------------------------------|
--------------------------------|-------------------------------------|
--------------------------------|-------------------------------------|

--17---17--------17------------|-----17---17--------17-----17--------|
------------17-----------------|---------------17---------------17---|
-------------------------------|-------------------------------------|
-------------------------------|-------------------------------------|
-------------------------------|-------------------------------------|
-------------------------------|-------------------------------------|

--17---17--------17------------|-----17---17--------17-----17--------|
------------17-----------------|---------------17---------------17---|
-------------------------------|-------------------------------------|
-------------------------------|-------------------------------------|
-------------------------------|-------------------------------------|
-------------------------------|-------------------------------------|

--17---17--------17------------|-----17---17--------17-----17--------|
------------17-----------------|---------------17---------------17---|
-------------------------------|-------------------------------------|
-------------------------------|-------------------------------------|
-------------------------------|-------------------------------------|
-------------------------------|-------------------------------------|

--17---17--------17------------|-----5--------5----------|
------------17-----------------|-----5--------5----------|
-------------------------------|-------------------------|
-------------------------------|-------------------------|
-------------------------------|-------------------------|
-------------------------------|-------------------------|

--5--------5--------3-----|-----5--------5----------|--5--------5--------3-----|
--5--------5--------3-----|-----5--------5----------|--5--------5--------3-----|
--------------------------|-------------------------|--------------------------|
--------------------------|-------------------------|--------------------------|
--------------------------|-------------------------|--------------------------|
--------------------------|-------------------------|--------------------------|

-----5--------5----------|--5--------5--------3-----|-----5--------5----------|
-----5--------5----------|--5--------5--------3-----|-----5--------5----------|
-------------------------|--------------------------|-------------------------|
-------------------------|--------------------------|-------------------------|
-------------------------|--------------------------|-------------------------|
-------------------------|--------------------------|-------------------------|

--5--------5------------|
--5--------5------------|
------------------------|
------------------------|
------------------------|
------------------------|

----------------------------------------------------------|
--13p-10-13p-10-13p-10-13p-10-13p-10-13p-10-13p-10-13p-10-|
----------------------------------------------------------|
----------------------------------------------------------|
----------------------------------------------------------|
----------------------------------------------------------|

--10----------------------------12p-10--------------------|
----------------10-12h-13p-12----------13p-12p-10---------|
-----11h-12h-13-----------------------------------12p-11h-|
----------------------------------------------------------|
----------------------------------------------------------|
----------------------------------------------------------|

---------------------------------------------|
---------------------------------------------|
--12--11s-7s-5s-2----------------------------|
------------------5------10----------7h-9p-7-|
----------------------------7h-9h-10---------|
---------------------------------------------|

--------------------------------------------|---------------------------------|
---------------7h-8p-7---10---------7h-8p-7-|--10-10---------------------7----|
--9-------7h-9-----------------7h-9---------|-----------------7h-9-7h-9-------|
----9h-10-------------------10--------------|---------9---10------------------|
--------------------------------------------|---------------------------------|
--------------------------------------------|---------------------------------|

-------------------------------|-----8-10-9--8-7--------------------|
--10----------------------7----|--7---------------11-10-9--8--------|
---------------7h-9-7h-9-------|------------------------------11-10-|
-------9---10------------------|------------------------------------|
-------------------------------|------------------------------------|
-------------------------------|------------------------------------|

-------------------------------------------|--------10-9----------------------|
-------------------------------------------|--10----------12--10--12----------|
--9--8-------------------------------------|--------------------------11--12--|
-------12-11-10-9--------------------------|----------------------------------|
-------------------13-12-11-10-------------|----------------------------------|
-------------------------------14-13-12-11-|----------------------------------|

------10--9--10--------L---|--------14-12--11------11-----------|
--10-----------------------|--12---------------14---------------|
---------------------------|---------------------------14---L---|
---------------------------|------------------------------------|
---------------------------|------------------------------------|
---------------------------|------------------------------------|

-----------13---L--------------|-------------------|-------------------|
--12---L-----------------------|-------------------|-------------------|
-------------------------------|-------------------|-------------------|
-------------------------------|-------------------|-------------------|
-------------------------------|-------------------|-------------------|
-------------------------------|-------------------|-------------------|

-------------------|-------------------|-------------------|-------------------|
-------------------|-------------------|-------------------|-------------------|
-------------------|-------------------|-------------------|-------------------|
-------------------|-------------------|-------------------|-------------------|
-------------------|-------------------|-------------------|-------------------|
-------------------|-------------------|-------------------|-------------------|

-------------------|-------------------|-------------------|-------------------|
-------------------|-------------------|-------------------|-------------------|
-------------------|-------------------|-------------------|-------------------|
-------------------|-------------------|-------------------|-------------------|
-------------------|-------------------|-------------------|-------------------|
-------------------|-------------------|-------------------|-------------------|

-------------------|---------------------||
-------------------|---------------------||
-------------------|-------------------*-||
-------------------|-------------------*-||
-------------------|---------------------||
-------------------|---------------------||

Compositor não encontrado.
12.293 exibições
    • ½ Tom
    • A
    • Bb
    • B
    • C
    • Db
    • D
    • Eb
    • E
    • F
    • F#
    • G
    • Ab
  • Adicionar à lista

    0 comentários

    Ver todos os comentários

    Conseguiu tocar?

    0 Tocaram 0 Ainda não

    Grave um vídeo tocando Dr. Mario - Chill e nos envie!

    00:00 / 00:00
    Outros vídeos desta música
    Repetir Qualidade Automático
    Outros vídeos desta música
    00:00 / 00:00
    Automático

    Cifra Club Pro

    Aproveite o Cifra Club com benefícios exclusivos e sem anúncios
    Cifra Club Pro
    Aproveite o Cifra Club com benefícios exclusivos e sem anúncios
    OK