Cifra Club

Aprenda

Super Mario Bros

Mario Bros

Cifra: Principal (violão e guitarra)
tom: G
[Intro]

E|-0-0-0---0-3------------------------------------------------------|
B|-------1----------------------------------------------------------|
G|-------------0-0-------0------------------------------------------|
D|-----------------2---2---4-3--------------------------------------|
A|-------------------3----------------------------------------------|
E|------------------------------------------------------------------|

[Primeira Parte]

E|-----------------0-3-5-1-3-0--------------------------------------|
B|-1-------0-------------------1-3-0--------------------------------|
G|---0---2---3-2-0--------------------------------------------------|
D|-----2------------------------------------------------------------|
A|------------------------------------------------------------------|
E|------------------------------------------------------------------|

E|-----------------0-3-5-1-3-0--------------------------------------|
B|-1-------0-------------------1-3-0--------------------------------|
G|---0---2---3-2-0--------------------------------------------------|
D|-----2------------------------------------------------------------|
A|------------------------------------------------------------------|
E|------------------------------------------------------------------|

[Segunda Parte]

E|-3-1-0---0-------------3-1-0---0-8-8-8-3-1-0---0---0-1---1-3-4-3-1|
B|-------3-----0-1---1-3-------3---------------3---2-----2----------|
G|-----------2-----2------------------------------------------------|
D|------------------------------------------------------------------|
A|------------------------------------------------------------------|
E|------------------------------------------------------------------|

E|-3-1-0---0-------------3-1-0---0-8-8-8-3-1-0---0---0-1---1-3-4-3-1|
B|-------3-----0-1---1-3-------3---------------3---2-----2----------|
G|-----------2-----2------------------------------------------------|
D|------------------------------------------------------------------|
A|------------------------------------------------------------------|
E|------------------------------------------------------------------|

[Terceira Parte]

E|-----------0-----------------0-----------0-------0-0-0---0-3------|
B|-1-1-1-1-3---1-----1-1-1-1-3---1-1-1-1-3---1-----------1----------|
G|---------------2-0---------------------------2-0-------------0----|
D|------------------------------------------------------------------|
A|------------------------------------------------------------------|
E|------------------------------------------------------------------|

[Primeira Parte]

E|-----------------0-3-5-1-3-0--------------------------------------|
B|-1-------0-------------------1-3-0--------------------------------|
G|---0---2---3-2-0--------------------------------------------------|
D|-----2------------------------------------------------------------|
A|------------------------------------------------------------------|
E|------------------------------------------------------------------|

[Quarta Parte]

E|-0---------1-1-----5-5-5-3-1-0------------------------------------|
B|---1---------------------------1-1--------------------------------|
G|-----0-0-2-----2-2-----------------0------------------------------|
D|------------------------------------------------------------------|
A|------------------------------------------------------------------|
E|------------------------------------------------------------------|

E|-0---------1-1-----1-1-1-0-----0-0--------------------------------|
B|---1-----------------------3-1-----1------------------------------|
G|-----0-0-2-----2-2------------------------------------------------|
D|------------------------------------------------------------------|
A|------------------------------------------------------------------|
E|------------------------------------------------------------------|

E|-0---------1-1-----5-5-5-3-1-0------------------------------------|
B|---1---------------------------1-1--------------------------------|
G|-----0-0-2-----2-2-----------------0------------------------------|
D|------------------------------------------------------------------|
A|------------------------------------------------------------------|
E|------------------------------------------------------------------|

E|-0---------1-1-----1-1-1-0-----0-0--------------------------------|
B|---1-----------------------3-1-----1------------------------------|
G|-----0-0-2-----2-2------------------------------------------------|
D|------------------------------------------------------------------|
A|------------------------------------------------------------------|
E|------------------------------------------------------------------|

[Terceira Parte]

E|-----------0-----------------0-----------0-------0-0-0---0-3------|
B|-1-1-1-1-3---1-----1-1-1-1-3---1-1-1-1-3---1-----------1----------|
G|---------------2-0---------------------------2-0-------------0----|
D|------------------------------------------------------------------|
A|------------------------------------------------------------------|
E|------------------------------------------------------------------|

[Quarta Parte]

E|-0---------1-1-----5-5-5-3-1-0------------------------------------|
B|---1---------------------------1-1--------------------------------|
G|-----0-0-2-----2-2-----------------0------------------------------|
D|------------------------------------------------------------------|
A|------------------------------------------------------------------|
E|------------------------------------------------------------------|

E|-0---------1-1-----1-1-1-0-----0-0--------------------------------|
B|---1-----------------------3-1-----1------------------------------|
G|-----0-0-2-----2-2------------------------------------------------|
D|------------------------------------------------------------------|
A|------------------------------------------------------------------|
E|------------------------------------------------------------------|

[Quinta Parte]

E|---8---5---6---8---5-----6---3---4---6---3---4--------------------|
B|-5---5---5---5---5---6-3---3---3---3---3---3----------------------|
G|------------------------------------------------------------------|
D|------------------------------------------------------------------|
A|------------------------------------------------------------------|
E|------------------------------------------------------------------|

E|---------------------------6-5-4----------------------------------|
B|-4-3-2-1-4-3-----3---4-3-2-------4-0------------------------------|
G|-------------3-1---1-----------------3-2-1------------------------|
D|------------------------------------------------------------------|
A|------------------------------------------------------------------|
E|------------------------------------------------------------------|

E|---8---5---6---8---5-----6---3---4---6---3---4--------------------|
B|-5---5---5---5---5---6-3---3---3---3---3---3----------------------|
G|------------------------------------------------------------------|
D|------------------------------------------------------------------|
A|------------------------------------------------------------------|
E|------------------------------------------------------------------|

E|---------------------------6-5-4----------------------------------|
B|-4-3-2-1-4-3-----3---4-3-2-------4-0------------------------------|
G|-------------3-1---1-----------------3-2-1------------------------|
D|------------------------------------------------------------------|
A|------------------------------------------------------------------|
E|------------------------------------------------------------------|
Compositor não encontrado.
Colaboração e revisão:
  • Aimi s2
20.041 exibições
    • ½ Tom
    • A
    • Bb
    • B
    • C
    • Db
    • D
    • Eb
    • E
    • F
    • F#
    • G
    • Ab
  • Adicionar à lista

    0 comentários

    Ver todos os comentários

    Conseguiu tocar?

    3 Tocaram 2 Ainda não

    Grave um vídeo tocando Super Mario Bros e nos envie!

    00:00 / 00:00
    Outros vídeos desta música
    Repetir Qualidade Automático
    Outros vídeos desta música
    00:00 / 00:00
    Automático

    Cifra Club Pro

    Aproveite o Cifra Club com benefícios exclusivos e sem anúncios
    Cifra Club Pro
    Aproveite o Cifra Club com benefícios exclusivos e sem anúncios
    OK