Enviar cifraEntrar

A Sua

Marisa Monte

Cifra: Principal
exibições 460.340
Tom: G
Intro: G7M  C7(9)  D6(9)  D7M(9)  D7(9)  Am6 (2x)
       G7M  C7(9)

Dedilhado:
Parte 1 de 2 (2x)

   G7M   C7(9)  D6(9)  D7M(9)  D7(9)  Am6
E|------------------------------------------|
B|-3-3----3-3----5-5----5-5----5-5----5-5---|
G|-4-4----3-3----4-4----6-6----5-5----5-5---|
D|-4-4----2-2----4-4----4-4----4-4----4-4---|
A|--------3---3--5---5--5---5--5---5--------|
E|-3---3------------------------------5---5-|


Parte 2 de 2

   G7M   C7(9)
E|------------------------------------------|
B|-3-3----3-3-------------------------------|
G|-4-4----3-3-------------------------------|
D|-4-4----2-2-------------------------------|
A|--------3---3-----------------------------|
E|-3---3------------------------------------|


Primeira Parte:

D6(9)              D7M(9)   D7(9)
      Eu só quero que você saiba
       Am6               G7M
Que estou pensando em você
  C7(9)
Agora e sempre mais
D6(9)              D7M(9)  D7(9)
      Eu só quero que você ouça
      Am6                  G7M
A canção que eu fiz pra dizer
            G6            E7(9)  G6(9)
Que eu te adoro cada vez mais
             A7(9)           D6(9)
E que eu te quero sempre em paz

           D7M(9)      D7(9)
Tô com sintomas de saudade
       Am6        G7M
Tô pensando em você
            C7(9)
Como eu te quero tanto bem
D6(9)        D7M(9)        D7(9)
      Aonde for não quero dor
         Am6        G7M
Eu tomo conta de você
              G6       E7(9)
Mas te quero livre também
G6(9)               A7(9)         D6(9)
      Como o tempo vai e o vento vem

Primeira Parte:

Parte 1 de 4

  D6(9)  D7M(9)  D7(9)  Am6   G7M    C7(9)
E|------------------------------------------|
B|-5-5----5-5----5-5----5-5----3-3----3-3---|
G|-4-4----6-6----5-5----5-5----4-4----3-3---|
D|-4-4----4-4----4-4----4-4----4-4----2-2---|
A|-5---5--5---5--5---5----------------3---3-|
E|----------------------5---5--3---3--------|


Parte 2 de 4

  D6(9)  D7M(9)  D7(9)  Am6   G7M    G6
E|------------------------------------------|
B|-5-5----5-5----5-5----5-5----3-3----3-3---|
G|-4-4----6-6----5-5----5-5----4-4----4-4---|
D|-4-4----4-4----4-4----4-4----4-4----2-2---|
A|-5---5--5---5--5---5----------------------|
E|----------------------5---5--3---3--3---3-|


Parte 3 de 4

  E7(9)         G6(9)  A7(9)
E|------------------------------------------|
B|-7-7----7-7----3-3----0-0-----------------|
G|-7-7----7-7----2-2----4-4-----------------|
D|-6-6----6-6----2-2----5-5-----------------|
A|------------------------------------------|
E|-0---0--0---0--3---3--5---5---------------|


Parte 4 de 4

  D6(9)
E|------------------------------------------|
B|-5-5----5-5----5-5----5-5-----------------|
G|-4-4----4-4----4-4----4-4-----------------|
D|-4-4----4-4----4-4----4-4-----------------|
A|-5---5--5---5--5---5--5---5---------------|
E|------------------------------------------|


Segunda Parte:

             D7M(9)   D7(9)
Eu só quero que você caiba
        Am6     G7M
No meu colo porque
        C7(9)         D6(9)
Eu te adoro cada vez mais
             D7M(9)   D7(9)
Eu só quero que você siga
     Am6      G7M
Para onde quiser
                  A7          D6(9)
Que eu não vou ficar muito atrás

Segunda Parte:

Parte 1 de 3

  D6(9)  D7M(9)  D7(9)  Am6   G7M    C7(9)
E|------------------------------------------|
B|-5-5----5-5----5-5----5-5----3-3----3-3---|
G|-4-4----6-6----5-5----5-5----4-4----3-3---|
D|-4-4----4-4----4-4----4-4----4-4----2-2---|
A|-5---5--5---5--5---5----------------3---3-|
E|----------------------5---5--3---3--------|


Parte 2 de 3

  D6(9)  D7M(9)  D7(9)  Am6   G7M     A7
E|------------------------------------------|
B|-5-5----5-5----5-5----5-5----3-3----5-5---|
G|-4-4----6-6----5-5----5-5----4-4----6-6---|
D|-4-4----4-4----4-4----4-4----4-4----5-5---|
A|-5---5--5---5--5---5----------------------|
E|----------------------5---5--3---3--5---5-|


Parte 3 de 3

  D6(9)
E|------------------------------------------|
B|-5-5----5-5----5-5----5-5-----------------|
G|-4-4----4-4----4-4----4-4-----------------|
D|-4-4----4-4----4-4----4-4-----------------|
A|-5---5--5---5--5---5--5---5---------------|
E|------------------------------------------|


Primeira Parte:

           D7M(9)      D7(9)
Tô com sintomas de saudade
       Am6        G7M
Tô pensando em você
            C7(9)
Como eu te quero tanto bem
D6(9)        D7M(9)        D7(9)
      Aonde for não quero dor
         Am6        G7M
Eu tomo conta de você
              G6       E7(9)
Mas te quero livre também
G6(9)               A7(9)         D6(9)
      Como o tempo vai e o vento vem

Final:

             D7M(9)   D7(9)
Eu só quero que você saiba
       Am6               G7M
Que estou pensando em você
              G6       E7(9)
Mas te quero livre também
G6(9)               A7(9)         D6(9)
      Como o tempo vai e o vento vem
                            E7(9)
E que eu te quero livre também
G7M               A7            D
    Como o tempo vai e o vento vem

Final:

Parte 1 de 4

  D6(9)  D7M(9)  D7(9)  Am6   G7M    G6
E|------------------------------------------|
B|-5-5----5-5----5-5----5-5----3-3----3-3---|
G|-4-4----6-6----5-5----5-5----4-4----4-4---|
D|-4-4----4-4----4-4----4-4----4-4----2-2---|
A|-5---5--5---5--5---5----------------------|
E|----------------------5---5--3---3--3---3-|


Parte 2 de 4

  E7(9)         G6(9)  A7(9)
E|------------------------------------------|
B|-7-7----7-7----3-3----0-0-----------------|
G|-7-7----7-7----2-2----4-4-----------------|
D|-6-6----6-6----2-2----5-5-----------------|
A|------------------------------------------|
E|-0---0--0---0--3---3--5---5---------------|


Parte 3 de 4

  D6(9)
E|------------------------------------------|
B|-5-5----5-5----5-5----5-5-----------------|
G|-4-4----4-4----4-4----4-4-----------------|
D|-4-4----4-4----4-4----4-4-----------------|
A|-5---5--5---5--5---5--5---5---------------|
E|------------------------------------------|


Parte 4 de 4

  E7(9)         G7M     A7    D
E|----------------------------2-------------|
B|-7-7----7-7----3-3----5-----3-------------|
G|-7-7----7-7----4-4----6-----2-------------|
D|-6-6----6-6----4-4----5-----0-------------|
A|------------------------------------------|
E|-0---0--0---0--3---3--5-------------------|
  • 1
  • 2
  • 3
  • 4
  • 5
  • 6
  • 7
  • 8
  • 9
  • 10
  • 11
  • 12
    Acordes para:
      Composição: Marisa MonteColaboração e revisão:

      0 comentários

        mostrar mais comentários

        Conseguiu tocar?

        14tocaram1ainda não

        Grave um vídeo tocando A Sua e mande pra gente!

        00:00 / 00:00
        outros vídeos desta música
        repetirqualidadeautomática
        • automática
        Outro vídeos desta música
          Capítulos
          • Tocando a música
          • Dicas Iniciais / Equipamentos
          • Acordes da Introdução
          • Tocando a Introdução
          • Introdução - Parte 1 de 2
          • Introdução - Parte 2 de 2
          • Acordes da Primeira Parte
          • Tocando a Primeira Parte
          • Primeira Parte - Parte 1 de 4
          • Primeira Parte - Parte 2 de 4
          • Primeira Parte - Parte 3 de 4
          • Primeira Parte - Parte 4 de 4
          • Acordes da Segunda Parte
          • Tocando a Segunda Parte
          • Segunda Parte - Parte 1 de 3
          • Segunda Parte - Parte 2 de 3
          • Segunda Parte - Parte 3 de 3
          • Acordes do Final
          • Tocando o Final
          • Final - Parte 1 de 4
          • Final - Parte 2 de 4
          • Final - Parte 3 de 4
          • Final - Parte 4 de 4
          • Encerramento
          • Ficha Técnica
          00:00 / 00:00
          automática
          • automática
          fecharplay/pause subir/descer velocidade
            acordes
            fechar
            OK
            Feedback