Cifra Club

Animals

Maroon 5

Cifra: Principal (violão e guitarra)
Selo Cifra Club: esta cifra foi revisada para atender aos critérios oficiais da nossa Equipe de Qualidade.
tom: G
[Tab - Riff Principal]

   Em
E|---0---0---0---0---0---0---0---0----------|
B|-8---8---8---8---8---8---8---8------------|
G|------------------------------------------|
D|------------------------------------------|
A|------------------------------------------|
E|------------------------------------------|

   D
E|---0---0---0---0---0---0---0---0----------|
B|-7---7---7---7---7---7---7---7------------|
G|------------------------------------------|
D|------------------------------------------|
A|------------------------------------------|
E|------------------------------------------|

   C
E|---0---0---0---0---0---0---0---0----------|
B|-5---5---5---5---5---5---5---5------------|
G|------------------------------------------|
D|------------------------------------------|
A|------------------------------------------|
E|------------------------------------------|

E|---0---0---0---0---0---0---0---0----------|
B|-5---5---5---5---5---5---5---5------------|
G|------------------------------------------|
D|------------------------------------------|
A|------------------------------------------|
E|------------------------------------------|

[Refrão 1]

            Em
Baby, I’m preying on you tonight
          D
Hunt you down, eat you alive
          C
Just like animals, animals

Like animals
            Em
Maybe you think that you can hide
        D
I can smell your scent from miles
          C
Just like animals, animals

Like animals

Baby, I'm

[Primeira Parte]

Em                                 D
   So what you trying to do to me?

It's like we can't stop
              C
We're enemies

But we get along
                    Em
When I'm inside you

You're like a drug
                  D
That's killing me
                       C
I cut you out entirely

But I get so high when I'm inside you

                    Em
Yeah, you can start over

You can run free
               D
You can find another fish in the sea
          C
You can pretend it’s meant to be

But you can’t stay away from me
             Em
I can still hear you making that sound
           D
Taking me down, rolling on the ground
          C
You can pretend that it was me

But no

[Refrão 2]

            Em
Baby, I’m preying on you tonight
          D
Hunt you down, eat you alive
          C
Just like animals, animals

Like animals
            Em
Maybe you think that you can hide
        D
I can smell your scent from miles
          C
Just like animals, animals

Like animals

Baby, I'm

[Segunda Parte]

Em                              D
   So if I run, it's not enough

You're still in my head
              C
Forever stuck
                                Em
So you can do what you wanna do

I love your lies
                D
I'll eat 'em up
                          C
But don't deny the animal

That comes alive when I'm inside you

                    Em
Yeah, you can start over

You can run free
               D
You can find another fish in the sea
          C
You can pretend it’s meant to be

But you can’t stay away from me
             Em
I can still hear you making that sound
           D
Taking me down, rolling on the ground
          C
You can pretend that it was me

But no

[Refrão 3]

            Em
Baby, I’m preying on you tonight
          D
Hunt you down, eat you alive
          C
Just like animals, animals

Like animals
            Em
Maybe you think that you can hide
        D
I can smell your scent from miles
          C
Just like animals, animals

Like animals

Baby, I'm

[Quarta Parte]

Em                                  D
   Don’t tell no lie, lie, lie, lie
                           C
You can’t deny, ny, ny, ny

The beast inside, side, side, side
                 Em
Yeah, yeah, yeah
                                 D
No girl don't lie, lie, lie, lie
                           C
You can't deny, ny, ny, ny

The beast inside, side, side, side

Yeah, yeah, yeah

[Final] Em  D  C
00:00 / 00:00
Outros vídeos desta música
Repetir
Outros vídeos desta música
239.285 exibições
    • ½ Tom
    • A
    • Bb
    • B
    • C
    • Db
    • D
    • Eb
    • E
    • F
    • F#
    • G
    • Ab
  • Adicionar à lista

Afinação da cifra

Afinador online

    0 comentários

    Ver todos os comentários

    Entre para o Cifra Club PRO

    Tenha acesso a benefícios exclusivos no App e no Site

    • Chega de anúncios

    • Mais recursos no app do Afinador

    • Atendimento Prioritário

    • Aumente seu limite de lista

    • Ajude a produzir mais conteúdo

    00:00 / 00:00

    Cifra Club Pro

    Aproveite o Cifra Club com benefícios exclusivos e sem anúncios
    Cifra Club Pro
    Aproveite o Cifra Club com benefícios exclusivos e sem anúncios
    OK