Cifra Club

Secret

Maroon 5

Cifra: Principal (violão e guitarra)
Tom: C
Intro:
 
E|-----------------------------------------------------------------------|
B|---------------------------------5-------------------------------------|
G|-5-5---5-5---5-5---5-5---5---5-5---5-5---5-5---5-5---5-----------------|
D|-5-5---4-4---3-3---2-2---4---5-5---4-4---3-3---2-2---4-----------------|
A|-0-0---0-0---0-0---0-0---0---0-0---0-0---0-0---0-0---0-----------------|
E|-----------------------------------------------------------------------|
 
Repeat intro + Fade in
 
E|-5-5-5-5-5-5-5-5-5-5-5-5-5-5-5-etc-------------------------------------|
B|-----------------------------------------------------------------------|
G|-----------------------------------------------------------------------|
D|-----------------------------------------------------------------------|
A|-----------------------------------------------------------------------|
E|-----------------------------------------------------------------------|
 
Versos: mesmo da Intro
 
Refrão:
 
E|-----------------|-----------------|-----------------|-----------------|
B|-----------------|-----------------|-----------------|-----------------|
G|-9-9-------------|-8-8-------------|-7-7-------------|-5-5-------------|
D|-----------------|-----------------|-----------------|-----------------|
A|-----------------|-----------------|-----------------|-----------------|
E|-8-8-------------|-7-7-------------|-6-6-------------|-5-5-------------|
 
Watch the sunrise
Say your goodbyes
Off we go
Some conversation
No contemplation
Hit the road
 
Car overheats
Jump out of my seat
On the side of the highway baby
Our road is long
Your hold is strong
Please don't ever let go Oh No
 
I know I don't know you
But I want you so bad
Everyone has a secret
But can they keep it
Oh No they can't
 
I'm driving fast now
Don't think I know how to go slow
Where you at now
I feel around
There you are
 
Cool these engines
Calm these jets
I ask you how hot can it get
And as you wipe of beads of sweat
Slowly you say, I'm not there yet.
exibições 53.546
Acordes para:

    0 comentários

    mostrar mais comentários

    Conseguiu tocar?

    5 tocaram 0 ainda não

    Grave um vídeo tocando Secret e mande pra gente!

    00:00 / 00:00
    outros vídeos desta música
    repetir qualidade Automático
    Outros vídeos desta música
    00:00 / 00:00
    Automático
    OK