Cifra Club

Sugar

Maroon 5

Tab de baixo: Principal
Introdução Efeitos e Teclados

[Primeira Parte]

I'm hurting, baby, I'm broken down...

Parte 1 de 2

   P    T T
G|-6h8----------------------------------------|
D|--------------------------------------------|
A|--------------------------------------------|
E|------2-2-----------------------------------|
 
Parte 2 de 2

I don't wanna be needing your love...

   P   T T T
G|-6h8----------------------------------------|
D|--------------------------------------------|
A|-------------------6-6-6--4-4-4-------------|
E|-----2-2-2--6-6-6---------------------------|

G|--------------------------------------------|
D|--------------------------------------------|
A|---------------6-6-6--4-4-4-----------------|
E|-2-2-2--6-6-6-------------------------------|

[Refrão]

Sugar yes, please...

Parte 1 de 2 - 2x

G|-6h8----------------------------------------|
D|--------------------------------------------|
A|-------------------6-6-6--4-4-4-------------|
E|-----2-2-2--6-6-6---------------------------|

Parte 2 de 2

G|--------------------------------------------|
D|--------------------------------------------|
A|-------------------6-6-6--4-4-4-------------|
E|-14/-2-2-2--6-6-6---------------------------|

G|--------------------------------------------|
D|--------------------------------------------|
A|---------------6-6-6--4-4-4-----------------|
E|-2-2-2—6--6-6----------------14/------------|

[Segunda Parte]

My broken pieces...

Parte 1 de 2 - 2x

G|--------------------------------------------|
D|--------------------------------------------|
A|---------------6-6-6--4-4-4-----------------|
E|-2-2-2--6-6-6-------------------------------|

Parte 2 de 2

  P    T T T
G|-6h8----------------------------------------|
D|--------------------------------------------|
A|-------------------6-6-6--4-4-4-------------|
E|-----2-2-2--6-6-6---------------------------|

G|--------------------------------------------|
D|--------------------------------------------|
A|---------------6-6-6--4-4-4-----------------|
E|-2-2-2--6-6-6-------------------------------|

[Refrão 2]

Parte 1 de 2

G|--------------------------------------------|
D|--------------------------------------------|
A|-------------------6-6-6--4-4-4-------------|
E|-14/-2-2-2--6-6-6---------------------------|

G|--------------------------------------------|
D|--------------------------------------------|
A|---------------6-6-6--4-4-4-----------------|
E|-2-2-2--6-6-6----------------14/------------|

Parte 2 de 2 - 2x

G|--------------------------------------------|
D|--------------------------------------------|
A|---------------6-6-6--4-4-4-----------------|
E|-2-2-2--6-6-6-------------------------------|

[Terceira Parte]

Yeah.I want that red velvet...

G|--------------------------------------------|
D|--------------------------------------------|
A|-9--9/13--6------4--------------------------|
E|-------------2/4----------------------------|

G|--------------------------------------------|
D|--------------------------------------------|
A|---------------6-6-6--4-4-4-----------------|
E|-2-2-2--6-6-6-------------------------------|

[Refrão 3]

Sugar yes, please...

Parte 1 de 5

G|--------------------------------------------|
D|--------------------------------------------|
A|-------------------6-6-6--4-4-4-------------|
E|-14/-2-2-2--6-6-6---------------------------|

G|--------------------------------------------|
D|--------------------------------------------|
A|---------------6-6-6--4-4-4-----------------|
E|-2-2-2--6-6-6----------------14/------------|

Parte 2 de 5 - 2x 

G|--------------------------------------------|
D|--------------------------------------------|
A|-----------------6-6-6--4-4-4---------------|
E|-2-2-2--2/6-6-6-----------------------------|

Parte 3 de 5 - 2x 

G|--------------------------------------------|
D|--------------------------------------------|
A|---------------6-6-6--4-4-4-----------------|
E|-2-2-2--6-6-6-------------------------------|

Parte 4 de 5 - 2x 

G|--------------------------------------------|
D|--------------------------------------------|
A|-----------------6-6-6--4-4-4---------------|
E|-2-2-2--2/6-6-6-----------------------------|

Parte 5 de 5

G|--------------------------------------------|
D|--------------------------------------------|
A|---------------6-6-6--4-4-4-----------------|
E|-2-2-2--6-6-6-------------------------------|
00:00 / 00:00
Outros vídeos desta música
Repetir
Outros vídeos desta música
Composição de Adam Levine / Ammo / Cirkuit / Henry Walter / Jacob Kasher Hindlin / Joshua Coleman / Lukasz Gottwald / Mike Posner
Colaboração e revisão:
  • Reginaldo Costa
6.536 exibições

0 comentários

Ver todos os comentários

Entre para oCifra Club PRO

Tenha acesso a benefícios exclusivos no App e no Site

  • Chega de anúncios

  • Prioridade de compra em lançamentos

  • Mais recursos no app do Afinador

  • Atendimento Prioritário

  • Descontos nos produtos Cifra Club

  • Ajude a produzir mais conteúdo

00:00 / 00:00
Capítulos
  • Tocando a música
  • Dicas Iniciais / Equipamentos
  • Primeira Parte - Parte 1 de 2
  • Primeira Parte - Parte 2 de 2
  • Primeiro Refrão - Parte 1 de 2
  • Primeiro Refrão - Parte 2 de 2
  • Segunda Parte - Parte 1 de 2
  • Segunda Parte - Parte 2 de 2
  • Segundo Refrão - Parte 1 de 2
  • Segundo Refrão - Parte 2 de 2
  • Terceira Parte
  • Terceiro Refrão - Parte 1 de 5
  • Terceiro Refrão - Parte 2 de 5
  • Terceiro Refrão - Parte 3 de 5
  • Terceiro Refrão - Parte 4 de 5
  • Terceiro Refrão - Parte 5 de 5
  • Encerramento
  • Ficha Técnica

Cifra Club Pro

Aproveite o Cifra Club com benefícios exclusivos e sem anúncios
Cifra Club Pro
Aproveite o Cifra Club com benefícios exclusivos e sem anúncios
OK