Cifra Club

Alone

Marshmello

Cifra: Principal (violão e guitarra)
Selo Cifra Club: esta cifra foi revisada para atender aos critérios oficiais da nossa Equipe de Qualidade.
tom: D
[Riff]

E|--------------------------------------------|
B|--------------------------------------------|
G|--------------------------------------------|
D|-------------4-4-4------0-0-0-0-------------|
A|--5-5-5---0-0-0-0-0--4-2-2-2-2---0-0-0------|
E|-3-3-3-3------------------------2-2-2---0-2-|

D         A
I'm so alone
Bm                  G
Nothing feels like home
D         A
I'm so alone
Bm               G
Trying to find my way
Back home to you

E|-2-2-2-2-2-2-2-2-2-2--3-| 2-2-2-2-2-2-2-2-2-2--3--|2-2-2-2-2-2-2-2-2-2--3--|-2-3-2---4-2------------|
B|---------------------3-----------------------3-----------------------3---------3----3-----------|
G|------------------------------------------------------------------------------------------------|
D|------------------------------------------------------------------------------------------------|
A|------------------------------------------------------------------------------------------------|
E|------------------------------------------------------------------------------------------------|
Outros vídeos desta música
    32.185 exibições
      • ½ Tom
      • A
      • Bb
      • B
      • C
      • Db
      • D
      • Eb
      • E
      • F
      • F#
      • G
      • Ab
    • Adicionar à lista

    Afinação da cifra

    Afinador online

      0 comentários

      Ver todos os comentários

      Entre para o Cifra Club PRO

      Tenha acesso a benefícios exclusivos no App e no Site

      • Chega de anúncios

      • Badges exclusivas

      • Mais recursos no app do Afinador

      • Atendimento Prioritário

      • Aumente seu limite de lista

      • Ajude a produzir mais conteúdo

      Cifra Club Pro

      Aproveite o Cifra Club com benefícios exclusivos e sem anúncios
      Cifra Club Pro
      Aproveite o Cifra Club com benefícios exclusivos e sem anúncios
      Ops (: Contenido disponible sólo en portugués.
      OK