Cifra Club

Aprenda

Spotlight (feat. Lil Peep)

Marshmello

Cifra: Principal (violão e guitarra)
Tom: A
[Intro]

E|-7------7-----------------------------------------|
B|--8-10-8-8-8-10-8---------------------------------|
G|--------------------------------------------------|
D|--------------------------------------------------|
A|--------------------------------------------------|
E|--------------------------------------------------|

               Em/B
E|-------------7------------------------------------|
B|-------------7-8----------------------------------|
G|-------------7--9---------------------------------|
D|-------------7------------------------------------|
A|-------------7------------------------------------|
E|-------------7------------------------------------|

               G4
E|-------------3------------------------------------|
B|-------------3------------------------------------|
G|-------------3-5----------------------------------|
D|-------------3-5----------------------------------|
A|-------------3------------------------------------|
E|-------------3------------------------------------|

               A4
E|-------------5------------------------------------|
B|-------------5------------------------------------|
G|-------------5-7----------------------------------|
D|-------------5-7----------------------------------|
A|-------------5------------------------------------|
E|-------------5------------------------------------|

 Em/B        G4      A4
Loving you is like a fairytale
 Em/B        G4      A4
I just can't pick up the phone again
 Em/B        G4      A4
This time I'll be on my own, my friend
 Em/B        G4      A4
One more time, I'm all alone again

 Em/B        G4      A4
Sex with you is like I'm dreaming, and
 Em/B        G4      A4
I just wanna hear you scream again
 Em/B               G4      A4
Now you're gone, I can't believe that
 Em/B           G4      A4
Time I spent with you deceiving me
 Em/B        G4      A4
I don't care if you believe in me
 Em/B        G4      A4
I still wonder why you're leaving me
 Em/B          G4      A4
I don't care if you believe me
 Em/B             G4      A4
I still wonder why you tease me

 Em/B                G4      A4
And if I'm taking this the wrong way
 Em/B              G4      A4
I hope you know that you can tell me whatever you're thinking
 Em/B               G4        A4
It's when you put me in the spotlight (spotlight)
 Em/B             G4                 A4
I hope you know I'm faded, all of this liquor I'm drinking
 Em/B               G4      A4
And if I'm taking this the wrong way (wrong way)
 Em/B              G4      A4
I hope you know that you can tell me whatever you're thinking
 Em/B               G4        A4
It's when you put me in the spotlight (spotlight)
 Em/B               G4        A4
It's when you put me in the spotlight (spotlight)

         Em/B        G4    A4
When the moon hit your skin
        Em/B      G4    A4
I could see you and him
         Em/B    G4   A4
Not you and me, yeah
              Em/B        G4    A4
But it's just you and me, yeah
          Em/B        G4   A4
When the sun shines above
       Em/B            G4      A4
You wake up with the one you love
         Em/B    G4   A4
Not you and me, yeah
              Em/B        G4    A4
But it's just you and me, yeah
 Em/B        G4      A4
(All alone again)

 Em/B        G4      A4
Sex with you is like I'm dreaming, and
 Em/B        G4      A4
I just wanna hear you scream again
 Em/B               G4      A4
Now you're gone, I can't believe that
 Em/B           G4      A4
Time I spent with you deceiving me
 Em/B        G4      A4
I don't care if you believe in me
 Em/B        G4      A4
I still wonder why you're leaving me
 Em/B          G4      A4
I don't care if you believe me
 Em/B             G4      A4
I still wonder why you tease me

 Em/B                G4      A4
And if I'm taking this the wrong way
 Em/B              G4      A4
I hope you know that you can tell me whatever you're thinking
 Em/B               G4        A4
It's when you put me in the spotlight (spotlight)
 Em/B             G4                 A4
I hope you know I'm faded, all of this liquor I'm drinking
 Em/B               G4      A4
And if I'm taking this the wrong way (wrong way)
 Em/B              G4      A4
I hope you know that you can tell me whatever you're thinking
 Em/B               G4        A4
It's when you put me in the spotlight (spotlight)
 Em/B               G4        A4
It's when you put me in the spotlight (spotlight)

         Em/B        G4    A4
When the moon hit your skin
        Em/B      G4    A4
I could see you and him
         Em/B    G4   A4
Not you and me, yeah
              Em/B        G4    A4
But it's just you and me, yeah
          Em/B        G4   A4
When the sun shines above
       Em/B            G4      A4
You wake up with the one you love
         Em/B    G4   A4
Not you and me, yeah
 Em/B               G4        A4
It's when you put me in the spotlight (spotlight)
 Em/B               G4        A4
It's when you put me in the spotlight (spotlight)

(Spotlight, spotlight)
Composição de LIL PEEP / Marshmello
Colaboração e revisão:
  • Italo Azevedo
687 exibições
    • ½ Tom
    • A
    • Bb
    • B
    • C
    • Db
    • D
    • Eb
    • E
    • F
    • F#
    • G
    • Ab
  • Adicionar à lista

    0 comentários

    Mostrar mais comentários

    Conseguiu tocar?

    0 Tocaram 0 Ainda não

    Grave um vídeo tocando Spotlight (feat. Lil Peep) e mande pra gente!

    00:00 / 00:00
    outros vídeos desta música
    repetir qualidade Automático
    Outros vídeos desta música
    00:00 / 00:00
    Automático

    Cifra Club Pro

    Aproveite o Cifra Club com benefícios exclusivos e sem anúncios
    7 dias grátis
    Cifra Club Pro
    Aproveite o Cifra Club com benefícios exclusivos e sem anúncios
    7 dias grátis
    OK