Cifra Club

Strangers

Martina McBride

Cifra: Principal (violão e guitarra)
Selo Cifra Club: esta cifra foi revisada para atender aos critérios oficiais da nossa Equipe de Qualidade.
tom: G
[Intro]
E|---------3---------------3---------------3---------------3-----------------|
B|-------0---0-----------0---0-----------0---0-----------0---0---------------|
G|-----2-------2-------2-------2-------2-------2-------2-------2-------------|
D|---0-----------0---0-----------0---0-----------0---0-----------0-----------|
A|---------------------------------------------------------------------------|
E|-3---------------3---------------3---------------3-------------------------|

[Verse 1]
Two strangers passing on the sidewalk, barely brush each other's hand
E|---------3---------------3---------------3---------------3-----------------|
B|-------0---0-----------0---0-----------0---0-----------0---0---------------|
G|-----2-------2-------2-------2-------2-------2-------2-------2-------------|
D|---0-----------0---0-----------0---0-----------0---0-----------0-----------|
A|---------------------------------------------------------------------------|
E|-3---------------3---------------3---------------3-------------------------|

He says "I'm sorry"   She says "Don't worry"
E|---------0-----------------------------------------------------------------|
B|-------1---1-----------1---------------------------------------------------|
G|-----0-------0-------0-----------------------------------------------------|
D|---2-----------2---2-------------------------------------------------------|
A|-3---------------3---------------------------------------------------------|
E|-------------------------1-------------------------------------------------|

And that is how it all began       A few short days and nights together
E|---------3---------------3---------------3---------------3-----------------|
B|-------0---0-----------0---0-----------0---0-----------0---0---------------|
G|-----2-------2-------2-------2-------2-------2-------2-------2-------------|
D|---0-----------0---0-----------0---0-----------0---0-----------0-----------|
A|---------------------------------------------------------------------------|
E|-3---------------3---------------3---------------3-------------------------|

And it's like they were meant to be  Lying there with her he softly whispers
E|---------3---------------3----------------0---------------0----------------|
B|-------0---0-----------0---0------------1---1-----------1---1--------------|
G|-----2-------2-------2-------2--------0-------0-------0-------0------------|
D|---0-----------0---0-----------0----2-----------2---2-----------2----------|
A|----------------------------------3---------------3---------------3--------|
E|-3---------------3---------------------------------------------------------|

Just think what we were so recently
E|---------3---------------3--------|
B|-------0---0-----------0---0------|
G|-----2-------2-------2-------2----|
D|---0-----------0---0-----------0--|
A|----------------------------------|
E|-3---------------3----------------|

[Chorus]
Stra---a---ngers                Stra----a---ngers
E|-3---0---3------8-7--8-7------3-------0---3---------(10)-(8)-(7)-----------|
B|-0---1---0--------------------0-------1---0--------------------------------|
G|-0---0---0--------------------0-------0---0--------------------------------|
D|-0---2---0--------------------0-------2---0--------------------------------|
A|-2---3---2--------------------2-------3---2--------------------------------|
E|-3-------3--------------------3-----------3--------------------------------|

The world greatest lovers       
E|--2-----------------------------------------------------------------------|
B|--3-----------------------------------------------------------------------|
G|--2-----------------------------------------------------------------------|
D|--0-----------------------------------------------------------------------|
A|--------------------------------------------------------------------------|
E|--------------------------------------------------------------------------|

Last week we were strangers
E|---------3---------------3---------------3---------------3-----------------|
B|-------0---0-----------0---0-----------0---0-----------0---0---------------|
G|-----2-------2-------2-------2-------2-------2-------2-------2-------------|
D|---0-----------0---0-----------0---0-----------0---0-----------0-----------|
A|---------------------------------------------------------------------------|
E|-3---------------3---------------3---------------3-------------------------|


[Verse 2]
Two strangers passing in the hallway, Barely touch each other's heart
E|---------3---------------3---------------3---------------3-----------------|
B|-------0---0-----------0---0-----------0---0-----------0---0---------------|
G|-----2-------2-------2-------2-------2-------2-------2-------2-------------|
D|---0-----------0---0-----------0---0-----------0---0-----------0-----------|
A|---------------------------------------------------------------------------|
E|-3---------------3---------------3---------------3-------------------------|

Now they're pretending, two shadows blending
E|---------0-----------------------------------------------------------------|
B|-------1---1-----------1---------------------------------------------------|
G|-----0-------0-------0-----------------------------------------------------|
D|---2-----------2---2-------------------------------------------------------|
A|-3---------------3---------------------------------------------------------|
E|-------------------------1-------------------------------------------------|

But they're a million miles apart   Soon she'll be packing up her suitcase
E|---------3---------------3---------------3---------------3-----------------|
B|-------0---0-----------0---0-----------0---0-----------0---0---------------|
G|-----2-------2-------2-------2-------2-------2-------2-------2-------------|
D|---0-----------0---0-----------0---0-----------0---0-----------0-----------|
A|---------------------------------------------------------------------------|
E|-3---------------3---------------3---------------3-------------------------|

They'll be dividing all the blame  They know how they started, now empty hearted
E|---------3---------------3----------------0---------------0----------------|
B|-------0---0-----------0---0------------1---1-----------1---1--------------|
G|-----2-------2-------2-------2--------0-------0-------0-------0------------|
D|---0-----------0---0-----------0----2-----------2---2-----------2----------|
A|----------------------------------3---------------3---------------3--------|
E|-3---------------3---------------------------------------------------------|

They don't have a clue how they became
E|---------3---------------3--------|
B|-------0---0-----------0---0------|
G|-----2-------2-------2-------2----|
D|---0-----------0---0-----------0--|
A|----------------------------------|
E|-3---------------3----------------|

[Chorus]
Stra---a---ngers                Stra----a---ngers
E|-3---0---3------8-7--8-7------3-------0---3---------(10)-(8)-(7)-----------|
B|-0---1---0--------------------0-------1---0--------------------------------|
G|-0---0---0--------------------0-------0---0--------------------------------|
D|-0---2---0--------------------0-------2---0--------------------------------|
A|-2---3---2--------------------2-------3---2--------------------------------|
E|-3-------3--------------------3-----------3--------------------------------|

The world greatest lovers       
E|--2-----------------------------------------------------------------------|
B|--3-----------------------------------------------------------------------|
G|--2-----------------------------------------------------------------------|
D|--0-----------------------------------------------------------------------|
A|--------------------------------------------------------------------------|
E|--------------------------------------------------------------------------|

And now they are strangers, the world's greatest lovers
E|---------3---------------3---------------3---------------3-----------------|
B|-------0---0-----------0---0-----------0---0-----------0---0---------------|
G|-----2-------2-------2-------2-------2-------2-------2-------2-------------|
D|---0-----------0---0-----------0---0-----------0---0-----------0-----------|
A|---------------------------------------------------------------------------|
E|-3---------------3---------------3---------------3-------------------------|
00:00 / 00:00
Outros vídeos desta música
Repetir
Outros vídeos desta música
1 exibições
    • ½ Tom
    • A
    • Bb
    • B
    • C
    • Db
    • D
    • Eb
    • E
    • F
    • F#
    • G
    • Ab
  • Adicionar à lista

Afinação da cifra

Afinador online

    0 comentários

    Ver todos os comentários

    Entre para o Cifra Club PRO

    Tenha acesso a benefícios exclusivos no App e no Site

    • Chega de anúncios

    • Mais recursos no app do Afinador

    • Atendimento Prioritário

    • Aumente seu limite de lista

    • Ajude a produzir mais conteúdo

    00:00 / 00:00

    Cifra Club Pro

    Aproveite o Cifra Club com benefícios exclusivos e sem anúncios
    Cifra Club Pro
    Aproveite o Cifra Club com benefícios exclusivos e sem anúncios
    OK