Cifra Club

Cicatriz

Masappan

Cifra: Principal (violão e guitarra)
tom: E

E|------------------------------------|
B|------------------------------------|
G|------------------------------------|
D|-----------6---6-----------6----6-7-|
A|--7h9-7h9---7-7-7--7h9-7h9---7-7----|
E|-0--------0--0----0-------0---0-----|

Em                              A 
E|-12-11---------------------------12-11--------------------------|
B|------12-9----------------------------12-9----------------------|
G|-----------11-11----------------------------11-11-13-13-13-14-13|
D|-----------------11-11-13-13-14---------------------------------|

Em            A 
E|-12-11---------------------------------------|
B|------12-9-----------------------------------|
G|----------11-11-11---------------------------|
D|------------------11-11-11-11-13-13-13-14-14-|
14-16-16-16-14-16-18-18-18-18-16--------------

verso
quiero encontrarle un sentido
Bm  C#/Dbmenor A  D  x2
precoro
ya ceraron mis heridas
Fm  A  x Bm  x2
coro
no hay nada (nada)
c#/Dbmenor x sim la x2 x sim c#/Dbmenor
 A  C#/Dbmenor x Bm  A 

aunque en las noches no duerma
Bm  C#/Dbmenor A  D  x2

precoro:
coro:

Solo:


c#/Dbmenor la sim x sim x sim x4
coro:...

E|-12-11---------------------------12-11--------------------------|
B|------12-9----------------------------12-9----------------------|
G|-----------11-11----------------------------11-11-13-13-13-14-13|
D|-----------------11-11-13-13-14---------------------------------|

E|-12-11--------------------------------------------------------|
B|------12-9----------------------------------------------------|
G|----------11-11-11--------------------------------------14-16-|
D|------------------11-11-13-13-14-14-14-14-16-14-16-14-16------|

x
1-0
2-0
3-9
4-9
5-7
6-7

c#/Dbmenor

1-0
2-0
3-0
4-11
5-11
6-9
version electrica(recomendable)o como gusten es con bases o normal
Composição de Masappan
    • ½ Tom
    • A
    • Bb
    • B
    • C
    • Db
    • D
    • Eb
    • E
    • F
    • F#
    • G
    • Ab
  • Adicionar à lista

    0 comentários

    Ver todos os comentários

    Conseguiu tocar?

    0 Tocaram 0 Ainda não

    Grave um vídeo tocando Cicatriz e nos envie!

    00:00 / 00:00
    Outros vídeos desta música
    Repetir Qualidade Automático
    Outros vídeos desta música
    00:00 / 00:00
    Automático

    Cifra Club Pro

    Aproveite o Cifra Club com benefícios exclusivos e sem anúncios
    Cifra Club Pro
    Aproveite o Cifra Club com benefícios exclusivos e sem anúncios
    OK