Cifra Club

En mis sueños

Masappan

Cifra: Principal (violão e guitarra)
tom: D
E|E|------------------------------------------------------------|-|

D...

(2x)
E|--------------------------|
B|--------------------------|
G|---0---0-----0------------|
D|--4-4---4---7-7---9-7-9---|
A|-5---5---5-5---5/7--------|
E|--------------------------|

D           F#m   G
 Me siento adolorido
D             F#m    G
 Desde que te fuiste sin razon
D       F#m    G         D
 Mi corazon se siente frio
       F#m    G          C
Porque no escucha tu voz

C
 Y no me siento vivo
A
 Camino sin razon


D   F#m Bm        G     D     F#m    Bm    G
 Houuhh quiero dejar de verte en mis sueños

D   F#m Bm      G      D       F#m    Bm    G
 Houuhh nunca pense perderte , asi de facil termino

D ...

(1x)
E|--------------------------|
B|--------------------------|
G|---0---0-----0------------|
D|--4-4---4---7-7---9-7-9---|
A|-5---5---5-5---5/7--------|
E|--------------------------|

D       F#m   G
 Y cada noche te recuerdo
D      F#m    G
 Y te extraño mucho mas
D      F#m    G
 Ahora se que no me amabas
D       F#m  G         C
 No Quiero Mirar Atras


C
 No me siento vivo
A
 Camino sin razon


D   F#m Bm        G     D     F#m    Bm    G
 Houuhh quiero dejar de verte en mis sueños

D   F#m Bm      G      D       F#m    Bm    G
 Houuhh nunca pense perderte , asi de facil termino

D ...

(6x)
E|--------------------------|
B|--------------------------|
G|---0---0-----0------------|
D|--4-4---4---7-7---9-7-9---|
A|-5---5---5-5---5/7--------|
E|--------------------------|

 Todo termino
 Solo estoy aqui
 Todo termino (Todo termino)
 Ahora estoy sin ti

...

D   F#m Bm        G     D     F#m    Bm    G
 Houuhh quiero dejar de verte en mis sueños

D   F#m Bm      G      D       F#m    Bm    G
 Houuhh nunca pense perderte , asi de facil

D   F#m Bm        G     D     F#m    Bm    G
 Houuhh quiero dejar de verte en mis sueños

D   F#m Bm      G      D       F#m    Bm    G       D
 Houuhh nunca pense perderte , asi de facil termino

E|------------------------------------------------------------|
Composição de Sepa la Madre!
    • ½ Tom
    • A
    • Bb
    • B
    • C
    • Db
    • D
    • Eb
    • E
    • F
    • F#
    • G
    • Ab
  • Adicionar à lista

    0 comentários

    Ver todos os comentários

    Conseguiu tocar?

    1 Tocaram 0 Ainda não

    Grave um vídeo tocando En mis sueños e nos envie!

    00:00 / 00:00
    Outros vídeos desta música
    Repetir Qualidade Automático
    Outros vídeos desta música
    00:00 / 00:00
    Automático

    Cifra Club Pro

    Aproveite o Cifra Club com benefícios exclusivos e sem anúncios
    Cifra Club Pro
    Aproveite o Cifra Club com benefícios exclusivos e sem anúncios
    OK