Cifra Club

Ya no existes

Masappan

Cifra: Principal (violão e guitarra)
tom: D
Intro

D  s Bm G    x2

                      D  Bm  x4

  D               Bm             G  
Te tengo que confesar   que ya estoy bien

  D                    Bm            G  
  ya no a dolido pensar en ti otra vez

       D             Bm
y hoy es el día en que no existes
         G       A 
Sabes que no me aces falta
       D           Bm
y hoy es el día en que no pierdo
        G          A 
el sueño por estar contigo

D ...

 D               Bm             G  
y deja ya de llorar esto acabo
  D               Bm             G  
 el sentimiento se fue   estoy mejor

    D             Bm
y hoy es el día en que no existes
      G       A 
Sabes que no me aces falta
    D           Bm
y hoy es el día en que no pierdo
    G          A 
el sueño por estar contigo


solo:

E|----------------------------------------------------------|
B|----------------------------------------------------------|
G|----------------------------------------------------------|
D|----------------------------------------------------------|
A|-5-5---5-5-5-0---4-4---4-4-4-0---2-2---2-2-2-0------------|
E|---------------------------------------------3-3---3-3-3-0|

x2

D           Bm        G  
ya no me duelen tus palabras
   D          Bm      G  
ya no me importa lo que hagas

   D             Bm
y hoy es el día en que no existes
     G         A 
Sabes que no me aces falta
    D           Bm
y hoy es el día en que no pierdo
      G           A 
el sueño por estar contigo

hoy es el día en el que

E|----------------------------|
B|----------------------------|
G|-14-7-9-14-11-9-14-7-9-11-9-|
D|-xx-x-x-xx-xx-x-xx-x-x-xx-x-|
A|-12-5-7-12--9-7-12-5-7-9-7--|
E|----------------------------|

hoy es el día en el que

E|-------------------------------|
B|-------------------------------|
G|-14-7-9-14-11-9-14-7-9-11-9--7-|
D|-xx-x-x-xx-xx-x-xx-x-x-xx-x--x-|
A|-12-5-7-12--9-7-12-5-7-9-7---5-|
E|-------------------------------|

D 

E|-----|
B|-----|
G|--7--|
D|--7--|
A|--5--|
E|-----|

Bm

E|-----|
B|-----|
G|--4--|
D|--4--|
A|--2--|
E|-----|

G  

E|-----|
B|-----|
G|-----|
D|--5--|
A|--5--|
E|--3--|

s

E|----|
B|----|
G|--9-|
D|--9-|
A|--7-|
E|----|
Composição de Jorge
    • ½ Tom
    • A
    • Bb
    • B
    • C
    • Db
    • D
    • Eb
    • E
    • F
    • F#
    • G
    • Ab
  • Adicionar à lista

    0 comentários

    Ver todos os comentários

    Conseguiu tocar?

    0 Tocaram 0 Ainda não

    Grave um vídeo tocando Ya no existes e nos envie!

    00:00 / 00:00
    Outros vídeos desta música
    Repetir Qualidade Automático
    Outros vídeos desta música
    00:00 / 00:00
    Automático

    Cifra Club Pro

    Aproveite o Cifra Club com benefícios exclusivos e sem anúncios
    Cifra Club Pro
    Aproveite o Cifra Club com benefícios exclusivos e sem anúncios
    OK