Cifra Club

Crusher Destroyer

Mastodon

Cifra: Principal (violão e guitarra)
tom: E
A G C F A D

Intro 1:        Verse 1:                Verse 2: + Verse 1
|------|        |-------------|         |---------------|
|------|        |-------------|         |---------------|
|------|        |-------------|         |---------------|
|------|        |-4-----4-----|         |-4-4-----4-----|
|-x\-0-|        |-2-3---2-5-3-|         |-2-2-3---2-5-3-|
|-x\-0-|        |---1-----3-1-|         |-----1-----3-1-|       

Verse 1 x6

Chorus 1:                 Chorus 2:     Verse 3:
|-------------|           |---0---0-|   |-0-----|
|-------------|           |---0---0-|   |-0-----|
|-------------|           |---------|   |-2-----|
|-3/7---3/10--|           |-3---3---|   |-3-----|
|-2/6---2/9---|           |-2---2---|   |-3-----|
|-1/5---1/8---|           |-1---1---|   |-1--\\-|

Chorus 1 + Chorus 2 x4

Verse 1 x4

Verse 3

Verse 1 x2

Verse 3

Verse 1 x4

Chorus 1 + Chorus 2 x4

Verse 4: + Verse 5 x2
|------------------------------------------------|
|------------------------------------------------|
|------------------------------------------------|
|-9tr--13tr--10tr--7tr-10tr-9tr-7tr-----9tr-13tr-|
|------------------------------------------------|
|-7tr--11tr---8tr--5tr--8tr-7tr-5tr-8tr-7tr-11tr-|

Verse 5:
|-------------------------------|       
|-------------------------------|
|-8-8-8-8-8--12--9--9--9--9--9--|
|-------------------------------|
|-------------------------------|
|-------------------------------|

Bridge:
|----------------------------------------|
|----------------------------------------|
|-12-12-12-12\11-11-9--15-15-15-15\14-14-|
|----------------------------------------|
|-10-10-10-10\-9--9-7--13-13-13-13\12-12-|
|----------------------------------------|

Solo 1:
|------7------7----7-7------7-7------7-7-7---|
|----7------7------7-7------7-7------7-7-7---|
|-9b-----9b-----9b-------9b-------9b---------|
|--------------------------------------------|
|--------------------------------------------|
|--------------------------------------------|

Bridge

Solo 2:
|------7-------7----------------------------|
|----7----7-10------------------------------|
|-9b--------------10p9p7----7-9--9b--7------|
|-------------------------9------------9-9--|
|-------------------------------------------|
|-------------------------------------------|

Verse 1 x4

Chorus 1 + Chorus 2 x4
00:00 / 00:00
Outros vídeos desta música
Repetir
Outros vídeos desta música
Composição de Mastodon
250 exibições
    • ½ Tom
    • A
    • Bb
    • B
    • C
    • Db
    • D
    • Eb
    • E
    • F
    • F#
    • G
    • Ab
  • Adicionar à lista

    0 comentários

    Ver todos os comentários

    Conseguiu tocar?

    0 Tocaram 0 Ainda não

    Grave um vídeo tocando Crusher Destroyer e nos envie!

    Entre para oCifra Club PRO

    Tenha acesso a benefícios exclusivos no App e no Site

    • Chega de anúncios

    • Prioridade de compra em lançamentos

    • Mais recursos no app do Afinador

    • Atendimento Prioritário

    • Descontos nos produtos Cifra Club

    • Ajude a produzir mais conteúdo

    00:00 / 00:00

    Cifra Club Pro

    Aproveite o Cifra Club com benefícios exclusivos e sem anúncios
    Cifra Club Pro
    Aproveite o Cifra Club com benefícios exclusivos e sem anúncios
    OK