Cifra Club

Oblivion

Mastodon

Cifra: Principal (violão e guitarra)
tom: G
Afinação: Drop C (C G C F A D)

Intro (0:00 - 0:38) [(12) = harmonico 12]
D|-----------------------------------------|
A|-----------------------------------------|
F|----8-----------8------------------------|
C|---------0-----------0-------------------|
G|------6-----------6----------------------|
C|-------------------------0---------------|

D|-----------------------------------------|
A|-----------------------------------------|
F|----8-----------8------------------------|
C|---------0-----------0-------------------|
G|------6-----------6------(12)------------|
C|-----------------------------------------|  (4x)

Pre-Verso (0:39 - 0:57)
D|------------------------------|
A|------------------------------|
F|----8-------------------------|
C|---------0-----5---7----------|
G|------6--------3---5----------|
C|-------------0---0---0--------| (2x)

D|----------------------------------------|
A|----------------------------------------|
F|----8-----------------------------------|
C|---------0-----5---7---8---7---5---7----|
G|------6--------3---5---6---5---3---5----|
C|-------------0---0---0---0---0---0----0-|

D|----------------------------------------|
A|----------------------------------------|
F|-10---7---9---7--10---7---7---9---------|
C|--x---x---x---x---x---x---x---x---------|
G|--8---5---7---5---8---5---5---7---------|
C|----------------------------------------| (2x)

Verso (0:57 - 1:18)
D|-----------------------------------------------|
A|-----------------------------------------------|
F|-----------------------------------------------|
C|----------------------1------------------------|
G|--3-------------3-------------------3----------|
C|----1-1-1-1-1-1---1-1---1-1-1-1-1-1---1-1------| (2x)

D|-----------------------------------------------|
A|-----------------------------------------------|
F|-----------------------------------------------|
C|----------------------4------------------------|
G|--2-------------2-------------------2----------|
C|----0-0-0-0-0-0---0-0---0-0-0-0-0-0---0-0------| (2x)
(2x)

Pre Refão (1:18 - 1:40)
D|---------------------------------|
A|---------------------------------|
F|---------------------------------|
C|---------------------------------|
G|--10-10-------7-7----------------|
C|-------8-8-7-7----8-8-0-0--------|  (4x)

D|---------------------------------|
A|---------------------------------| 
F|---------------------------------|
C|---------------------------------|
G|--8-8----------------------------|
C|-----8-8-7-7-5-5-7-7-8-8---------|  (4x)
(2x)

Refrão (1:41 - 1:59)
D|------------------------------------------------------------|
A|------------------------------------------------------------|
F|--10--10--10-------10--10--10----------9-12-9---------------|
C|--10--10--10-------10--10--10-----9-10--------10------------|
G|---8---8---8--------8---8---8-------------------------------|
C|---0---0---0---x-x--0---0---0---x---------------------------|

D|------------------------------------------------------------|
A|------------------------------------------------------------|
F|------------------------------------------------------------|
C|--7---7---7--------7---7---7--------------------------------|
G|--7---7---7--------7---7---7-------7-5-5-7------------------|
C|--7---7---7---x-x--7---7---7---7-8--------------------------|
(2x)

D|------------------------------------------------------------|
A|------------------------------------------------------------|
F|------------------------------------------------------------|
C|--5---5---5--------5---5---5--------------------------------|
G|--5---5---5--------5---5---5----------5-3-3-5---------------|
C|--5---5---5---x-x--5---5---5---x--0-3-----------------------|

(Verso) (1:59 - 2:20)

(Pre-Refrão) (2:21 - 2:42)

(Refrão) (2:43 - 3:19)

Ponte (3:19 - 3:34)
D|---------------------------------------------|
A|--------------0---2---0----------------------|
F|----------1-----1---1---1---0-1---0----------|
C|------0-----0-------------------3------------|
G|----0---0------------------------------------|
C|--0------------------------------------------|

D|----------------------------0-1---0----------|
A|--------------0---2---0---------2------------|
F|----------1-----1---1---1--------------------|
C|------0-----0--------------------------------|
G|----0---0------------------------------------|
C|--0------------------------------------------|
(2x)

(Solo (3:34 - 4:30)


Ponte (4:30 - 4:42)
D|--------------------------------------------|
A|--------------------------------------------|
F|--------------------------------------------|
C|--8--7--8--10--8--10--12\-------------------|
G|--8--7--8--10--8--10--12\-------------------|
C|--8--7--8--10--8--10--12\--0-0-0--0-0-------|

D|--------------------------------------------------------------|
A|--------------------------------------------------------------|
F|--------------------------------------------------------------|
C|--8--7--8--10--8--10--12--10--12--14--12--10--12\-------------|
G|--8--7--8--10--8--10--12--10--12--14--12--10--12\-------------|
C|--8--7--8--10--8--10--12--10--12--14--12--10--12\--0-0-0--0-0-|

D|----------------------------------------|
A|----------------------------------------|
F|-----------------------------10---------|
C|--8--7--8--10--8--10---------10---------|
G|--8--7--8--10--8--10----------8---------|
C|--8--7--8--10--8--10---0-0-0--0---------|

(Refrão) (4:42 - 5:46)

Ultima parte 
D|---------------------|
A|---------------------|
F|---------10----------|
C|---------10----------|
G|----------8----------|
C|--0-0-0---0----------|
00:00 / 00:00
Outros vídeos desta música
Repetir
Outros vídeos desta música
Composição de Mastodon
Colaboração e revisão:
  • Boris Cazoi
2.379 exibições
    • ½ Tom
    • A
    • Bb
    • B
    • C
    • Db
    • D
    • Eb
    • E
    • F
    • F#
    • G
    • Ab
  • Adicionar à lista

    0 comentários

    Ver todos os comentários

    Conseguiu tocar?

    1 Tocaram 0 Ainda não

    Grave um vídeo tocando Oblivion e nos envie!

    Entre para oCifra Club PRO

    Tenha acesso a benefícios exclusivos no App e no Site

    • Chega de anúncios

    • Prioridade de compra em lançamentos

    • Mais recursos no app do Afinador

    • Atendimento Prioritário

    • Descontos nos produtos Cifra Club

    • Ajude a produzir mais conteúdo

    00:00 / 00:00

    Cifra Club Pro

    Aproveite o Cifra Club com benefícios exclusivos e sem anúncios
    Cifra Club Pro
    Aproveite o Cifra Club com benefícios exclusivos e sem anúncios
    OK