Cifra Club

Sleeping Giant

Mastodon

Cifra: Principal (violão e guitarra)
tom: Bb
Tabbed by: Death Tribble
Email:

Tuning: Drop C (Drop D down a whole step) C,G,C,F,A,D


Intro

D||--------------------15----------------------------------------------15---|
A||-------------------------------------------------------------------------|
F||-------------------------------------------------------------------------|
C||---------------------5--------------5--------------------------------5---|
G||---5-7-8-------5-7-8----------5-7-8---8-7-5--------5-7-8-------5-7-8-----|
C||-0-----------0--------------0-------------------0------------0-----------|

D|------------------------------------------5---------||
A|--------------------------------------------5-------||
F|-------------------0------7/9/10-12-----------------||
C|---------5-----------0-------------------------7----||
G|---5-7-8---8-7-5-------3--5/7/8--10-----------------||
C|-0------------------------------------------------0-||
                                             
 Acoustic Guitar
D||-----------------------------------------------------0-----||
A||-------1-0----------0-0----------------------0---3-----3---||
F||-----2------------2-----2-4/5\4-2--------------------------||
C||---2------------3----------------------0-2-3---3---3-----3-||
G||-0----------0-2---------0-2/3\2-0-2p0----------------------||
C||-----------------------------------------------------------||

D|---------0-------------------------------------|
A|-------1---1----------0------------------------|
F|-----2-------2------2---2----------------------|
C|---2--------------3-------3-------2--------0---|
G|-0--------------2-----------2---2---2----2---2-|
C|------------------------------2--------5-------|

Behind the Lead
D|----------0h1-|
A|-----3----3---|
F|---2---2------|
C|-0------------|
G|--------------|
C|--------------|

Then it swithches to this

D|----------1p0-|
A|-----3----3---|
F|---2---2------|
C|-0------------|
G|--------------|
C|--------------|

Verse
D|----------------------------------------------------0-0-----0-------------|
A|-6-6-----6---9--9\6-8-6-5-6---6-6-----6---9--9-6-8--1-1-----1--9--9\6-8-6-|
F|-7-7-----7--10-10\7-9-7-6-7---7-7-----7--10-10-7-9--2-2-----2-10-10\7-9-7-|
C|-7-7-----7--10-10\7-9-7-6-7---7-7-----7--10-10-7-9--2-2-----2-10-10\7-9-7-|
G|-5-5-----5--------------------5-5-----5-------------0-0-0-0-0-------------|
C|-0-0-0-0-0--------------------0-0-0-0-0-----------------------------------|

D|----------------------------0-0-----0------------------------------|
A|-5-6--6-6-----6---9--9-6-8--1-1-----1---9--9\6-8-6-5-6--6-6------6-|
F|-6-7--7-7-----7--10-10-7-9--2-2-----2--10-10\7-9-7-6-7--7-7------7-|
C|-6-7--7-7-----7--10-10-7-9--2-2-----2--10-10\7-9-7-6-7--7-7------7-|
G|------5-5-----5-------------0-0-0-0-0-------------------5-5------5-|
C|------0-0-0-0-0-----------------------------------------0-0-0-0--0-|

Chorus
D|--------------------------------------------------------0-0-0-0-0-0-|
A|--------------------------------------------------------6-6-6-6-6-6-|
F|-10-10-10-10-10-10-10-----------------------------------7-7-7-7-7-7-|
C|-10-10-10-10-10-10-10-0-2-2-2-2-----2-2-2-3-3-3-3-3-3---7-7-7-7-7-7-|
G|-8--8--8--8--8--8--8--0-2-2-2-2-----2-2-2-3-3-3-3-3-3-0-5-5-5-5-5-5-|
C|----------------------0-2-2-2-2-2-2-2-2-2-3-3-3-3-3-3-0-0-0-0-0-0-0-|
                                                          |-----------|
                                                  Play 2nd and 3rd Time Only

The rest of it will be tabbed later.

| /  slide up
| \  slide down
| h  hammer-on
| p  pull-off
| ~  vibrato
| +  harmonic
| x  Mute note
=============================================================================
00:00 / 00:00
Outros vídeos desta música
Repetir
Outros vídeos desta música
Composição de Mastodon
1.977 exibições
    • ½ Tom
    • A
    • Bb
    • B
    • C
    • Db
    • D
    • Eb
    • E
    • F
    • F#
    • G
    • Ab
  • Adicionar à lista

    0 comentários

    Ver todos os comentários

    Conseguiu tocar?

    0 Tocaram 0 Ainda não

    Grave um vídeo tocando Sleeping Giant e nos envie!

    Entre para oCifra Club PRO

    Tenha acesso a benefícios exclusivos no App e no Site

    • Chega de anúncios

    • Prioridade de compra em lançamentos

    • Mais recursos no app do Afinador

    • Atendimento Prioritário

    • Descontos nos produtos Cifra Club

    • Ajude a produzir mais conteúdo

    00:00 / 00:00

    Cifra Club Pro

    Aproveite o Cifra Club com benefícios exclusivos e sem anúncios
    Cifra Club Pro
    Aproveite o Cifra Club com benefícios exclusivos e sem anúncios
    OK