Cifra Club

Wolf Is Loose

Mastodon

Cifra: Principal (violão e guitarra)
tom: E
Album: Blood Mountain
Tabbed by: choke383
Full Step Down Tuning: DGCFAD


pick slide

D|----------------------------------------------------------------|
A|----------------------------------------------------------------|
F|----------------------------------------------------------------|
C|---7--3--3-3-3-----7--3--3-3-3-----10-6--6-6-6-----10-6--6-6-6--|
G|0--7--3--3-3-3--0--7--3--3-3-3--0--10-6--6-6-6--0--10-6--6-6-6--|
D|0--5--1--1-1-1--0--5--1--1-1-1--0--8--4--4-4-4--0--8--4--4-4-4--|x2

0:16
D|-----------------------------------------------------------------------|
A|-----------------------------------------------------------------------|
F|-----------------------------------------------------------------------|
C|4-5-4----4-5-4----4-2-5----4-2-5----4-5-4----4-5-4----4-2-77777777777--|
G|4-5-4----4-5-4----4-2-5----4-2-5----4-5-4----4-5-4----4-2-77777777777--|
D|2-3-2----2-3-2----2-0-3----2-0-3----2-3-2----2-3-2----2-0-5555555------|

0:28
D|----------------------------------------------------------------|
A|----------------------------------------------------------------|
F|----------------------------------------------------------------|
C|---7--3--3-3-3-----7--3--3-3-3-----10-6--6-6-6-----10-6--6-6-6--|
G|0--7--3--3-3-3--0--7--3--3-3-3--0--10-6--6-6-6--0--10-6--6-6-6--|
D|0--5--1--1-1-1--0--5--1--1-1-1--0--8--4--4-4-4--0--8--4--4-4-4--|x2

0:38
D|-----------------------------------------------------------------------|
A|-----------------------------------------------------------------------|
F|-----------------------------------------------------------------------|
C|4-5-4----4-5-4----4-2-5----4-2-5----4-5-4----4-5-4----4-2-77777777777--|
G|4-5-4----4-5-4----4-2-5----4-2-5----4-5-4----4-5-4----4-2-77777777777--|
D|2-3-2----2-3-2----2-0-3----2-0-3----2-3-2----2-3-2----2-0-5555555------|

0:50
D|-------------------------------------|
A|-------------------------------------|
F|9----5--4--7----4--2--4--2--4--5-5---|
C|9----5--4--7----4--2--4--2--4--5-5---|
G|7----3--2--5----2--0--2--0--2--3-3---|
D|-------------------------------------|x4

1:11
D|-----------------------------------------------------------|
A|-----------------------------------------------------------|
F|-----------------------------------------------------------|
C|0h2-0-0h22-0-0h22-0----------0h2-0-0h22-0-0h22-0-----------|
G|--------------------1--1-0-----------------------1--1-0----|
D|---------------------------3----------------------------3--|

D|-----------------------------------------------------------------|
A|-----------------------------------------------------------------|
F|-----------------------------------------------------------------|
C|0h2-0-/3~333333-0h2-0-/5~555555-0h2-0-/5~555555-0h2-0-/7~777777--|
G|-----------------------------------------------------------------|
D|-----------------------------------------------------------------|x2 (from 1:11)

1:33
D|------------------------------------|
A|------------------------------------|
F|------------------------------------|
C|2-2-------2-2-------2-2-------3--3--|
G|2---33220-2---33220-2---33220-3--3--|
D|0---------0---------0---------1--1--|x3

1:51
D|-----------------------------------------------------------|
A|-----------------------------------------------------------|
F|-----------------------------------------------------------|
C|0h2-0-0h22-0-0h22-0----------0h2-0-0h22-0-0h22-0-----------|
G|--------------------1--1-0-----------------------1--1-0----|
D|---------------------------3----------------------------3--|

D|-----------------------------------------------------------------------------------------|
A|-----------------------------------------------------------------------------------------|
F|-----------------------------------------------------------------------------------------|
C|0h2-0-/3~333333-0h2-0-/5~555555-0h2-0-/7~777777-0h2-0-/9~999999121212121212141414141414--|
G|-----------------------------------------------------------------------------------------|
D|-----------------------------------------------------------------------------------------|

2:03
D|----------------------------------------------------------------|
A|----------------------------------------------------------------|
F|/9--7---------------------------/10--9-7------------------------|
C|------10-9-7-----------------------------10-9-7-----------------|
G|-------------10-8-7-5---------------------------10-8-7-5-7-8-7--|
D|----------------------8-7-5-3-0---------------------------------|x4

2:22
D|----------|
A|----------|
F|----------|
C|3----5----|
G|3----5----|
D|1----3----|

D|----------------------------------------------------------------------------|
A|----------------------------------------------------------------------------|
F|----------------------------------------------------------------------------|
C|7-7-7-5-7-----7-7-7-5-7--9--1010109-10----1010109-10-12--14-14-14-12-14-----|
G|7-7-7-5-7--0--7-7-7-5-7--9--1010109-10-0--1010109-10-12--14-14-14-12-14--0--|
D|5-5-5-3-5--0--5-5-5-3-5--7--8-8-8-7-8--0--8-8-8-7-8--10--12-12-12-10-12--0--|

D|------------------------------------------------|
A|------------------------------------------------|
F|------------------------------------------------|
C|14-14-14-12-14--12--1010109-10----1010109-10-9--|
G|14-14-14-12-14--12--1010109-10-0--1010109-10-9--|
D|12-12-12-10-12--10--8-8-8-7-8--0--8-8-8-7-8--7--|

D|---------------------------------------------------------|
A|---------------------------------------------------------|
F|---------------------------------------------------------|
C|7-7-7-5-7-----7-7-7-5-7--9--1010109-10----1010109-10-12--|
G|7-7-7-5-7--0--7-7-7-5-7--9--1010109-10-0--1010109-10-12--|
D|5-5-5-3-5--0--5-5-5-3-5--7--8-8-8-7-8--0--8-8-8-7-8--10--|

D|---------------------------------------------------------------|
A|---------------------------------------------------------------|
F|/10--9-7-----------/9--7--------------/7-----------------------|
C|---------10-9-7-6--------10-9-7----2------10-9-7-------3----5--|
G|----------------6---------------10-2-------------10----3----5--|
D|----------------4------------------0----------------0--1----3--|

D|---------------------------------------------------------|
A|---------------------------------------------------------|
F|---------------------------------------------------------|
C|7-7-7-5-7-----7-7-7-5-7--9--1010109-10----1010109-10-12--|
G|7-7-7-5-7--0--7-7-7-5-7--9--1010109-10-0--1010109-10-12--|
D|5-5-5-3-5--0--5-5-5-3-5--7--8-8-8-7-8--0--8-8-8-7-8--10--|

D|--------------------------------------------------------------------|
A|--------------------------------------------------------------------|
F|/10--9-7-----------/9--7--------------/7----------------------------|
C|---------10-9-7-6--------10-9-7----2------10-9-7-------3----5----7--|
G|----------------6---------------10-2-------------10----3----5----7--|
D|----------------4------------------0----------------0--1----3----5--|

pick slide

3:06
D|----------------------------------------------------------------|
A|----------------------------------------------------------------|
F|----------------------------------------------------------------|
C|---7--3--3-3-3-----7--3--3-3-3-----10-6--6-6-6-----10-6--6-6-6--|
G|0--7--3--3-3-3--0--7--3--3-3-3--0--10-6--6-6-6--0--10-6--6-6-6--|
D|0--5--1--1-1-1--0--5--1--1-1-1--0--8--4--4-4-4--0--8--4--4-4-4--|x2

3:17
D|---------------------------------------------------------------------------------|
A|---------------------------------------------------------------------------------|
F|---------------------------------------------------------------------------------|
C|2-----2-----2-0-/3~333333-2-----2-----2-0-/3~333333-2-0-/3~333333-2-0-/3~333333--|
G|--2-5---2-5-----------------2-5---2-5--------------------------------------------|
D|---------------------------------------------------------------------------------|

D|-----------------------------------------------|
A|-----------------------------------------------|
F|-----------------------------------------------|
C|2-0-/5~555555-2-0-/5~555555-20------320--------|
G|------------------------------320------320-----|
D|---------------------------------310------310--|



Any comments, questions or jokes send to *
00:00 / 00:00
Outros vídeos desta música
Repetir
Outros vídeos desta música
Composição de Mastodon
459 exibições
    • ½ Tom
    • A
    • Bb
    • B
    • C
    • Db
    • D
    • Eb
    • E
    • F
    • F#
    • G
    • Ab
  • Adicionar à lista

    0 comentários

    Ver todos os comentários

    Conseguiu tocar?

    0 Tocaram 0 Ainda não

    Grave um vídeo tocando Wolf Is Loose e nos envie!

    Entre para oCifra Club PRO

    Tenha acesso a benefícios exclusivos no App e no Site

    • Chega de anúncios

    • Prioridade de compra em lançamentos

    • Mais recursos no app do Afinador

    • Atendimento Prioritário

    • Descontos nos produtos Cifra Club

    • Ajude a produzir mais conteúdo

    00:00 / 00:00

    Cifra Club Pro

    Aproveite o Cifra Club com benefícios exclusivos e sem anúncios
    Cifra Club Pro
    Aproveite o Cifra Club com benefícios exclusivos e sem anúncios
    OK