Cifra Club

It Isn't Time

Mat Mchugh

Cifra: Principal (violão e guitarra)
tom: Bb
Intro:

   Cm                  B           F
E|--------------------------------------------|
B|------4p3-----3-----------3-----------1-----|
G|----5-----5---5-5-------3---3-------2---2---|
D|--5---------5---------3-------3---3-------3-|   x4
A|3---------------3-3-------------------------|
E|--------------------6-----------1-----------|

(Cm)(x4)

 Cm                    B
No, don't you say you love me
                F
When you don't love me
         G           A#
You only wanted me to be there when you fall
 Cm                   B
Now everything is changing
         F
But you're not changing
             G                A#
Then say you'll blame me if i change at all
 Cm
But i'm the same
       B
I'm the same
                F
It's just circumstances
         G                   A#
They always spin around as far as i recall
 Cm                       B                   F
And then if we're not taking all our chances
           G                 A#
One day regret will come and surely kill us all

Intro:

   Cm                  B           F
E|--------------------------------------------|
B|------4p3-----3-----------3-----------1-----|
G|----5-----5---5-5-------3---3-------2---2---|
D|--5---------5---------3-------3---3-------3-|   x4
A|3---------------3-3-------------------------|
E|--------------------6-----------1-----------|

(Cm)(x4)

Cm          B      F          Cm
And when i try to work it out
               B              F         Cm
Just what this whole damn thing's about
              B        B         Cm
You say we're running to be free
             B
But it isn't me
         B
It isn't me

It isn't
 Cm
Me

 Cm                     B
We all have hearts for someone
            F
We all have no one
             G            A#              Cm
We all have everything conceivable between
               B
Bold ideas of sorrow
            F
Pain and redemption
              G              A#                  Cm
Where is the love i need to keep me off my knees?

Where is escape?
      B
Where is escape?
             F             G           A#                Cm
Where is the final battle fought upon for my soul to see?
                         B
Where all the ways to break me
             F
They give up on me
            G
And all the ways to live
     A#
They come to rescue me

Intro:

   Cm                  B           F
E|--------------------------------------------|
B|------4p3-----3-----------3-----------1-----|
G|----5-----5---5-5-------3---3-------2---2---|
D|--5---------5---------3-------3---3-------3-|   x4
A|3---------------3-3-------------------------|
E|--------------------6-----------1-----------|

Cm          B      F          Cm
And when i try to work it out
               B              F         Cm
Just what this whole damn thing's about
              B        B         Cm
You say we're running to be free
             B
But it isn't me
         B
It isn't me

It isn't
 Cm
Me

G#                 G
And after all this time i thought
        Cm                B                  F
'well i can't go on just keeping saying nothing'
G#                     G
I'll scream until these lungs are raw
        Cm            B                   F
If it means that i at least stood up for something
G#                            G
You won't kill me with those words you say
            Cm     B             F
And i will never change in my direction
G#                      A
Because maybe it's just all a game
    Cm           B          F
And i will never fall at your suggestion
      G#
Until it all
      G
Until it all

Falls away...

Intro:

   Cm                  B           F
E|--------------------------------------------|
B|------4p3-----3-----------3-----------1-----|
G|----5-----5---5-5-------3---3-------2---2---|
D|--5---------5---------3-------3---3-------3-|   x4
A|3---------------3-3-------------------------|
E|--------------------6-----------1-----------|

   Cm
E|--------------------------------------------|
B|------4p3-----3-----------------------------|
G|----5-----5---5-5---------------------------|
D|--5---------5-------------------------------|
A|3---------------3---------------------------|
E|--------------------------------------------|
00:00 / 00:00
Outros vídeos desta música
Repetir
Outros vídeos desta música
Compositor não encontrado.
Colaboração e revisão:
  • Caio Ferreira
326 exibições
    • ½ Tom
    • A
    • Bb
    • B
    • C
    • Db
    • D
    • Eb
    • E
    • F
    • F#
    • G
    • Ab
  • Adicionar à lista

    0 comentários

    Ver todos os comentários

    Entre para oCifra Club PRO

    Tenha acesso a benefícios exclusivos no App e no Site

    • Chega de anúncios

    • Prioridade de compra em lançamentos

    • Mais recursos no app do Afinador

    • Atendimento Prioritário

    • Descontos nos produtos Cifra Club

    • Ajude a produzir mais conteúdo

    00:00 / 00:00

    Cifra Club Pro

    Aproveite o Cifra Club com benefícios exclusivos e sem anúncios
    Cifra Club Pro
    Aproveite o Cifra Club com benefícios exclusivos e sem anúncios
    OK