Cifra Club

Love Come Save Me

Mat Mchugh

Cifra: Principal (violão e guitarra)
tom: C
Intro:
     C    G    F  G   C
E|--8----3----1--3---8-----------|
B|--8----3----1--3---8-----------|
G|--9----4----2--4---9-----------|
D|--10---5----3--5---10----------|
A|--10---5----3--5---10----------|
E|--8----3----1--3---8-----------|

Intro e Verso: C  A G  F C
                                 (A)
    C  ↓   ↑  ↓  ↑   ↑   ↓   ↓  ↑  ↓  ↓
E|----8---x--x--8---8-------x--x--------|
B|----8---x--x--8---8-------x--x--------|
G|----9---x--x--9---9-------x--x--------|
D|----10--x--x--10--10------x--x--------|
A|----10--x--x--10--10------x--x--------|
E|-8--8---x--x--8---8---8---x--x--5--3--|

    G  ↓   ↑  ↓  ↑   ↑   ↓   ↓  ↑  ↓  ↓
E|----3---x--x--3---3-------x--x--------|
B|----3---x--x--3---3-------x--x--------|
G|----4---x--x--4---4-------x--x--------|
D|----5---x--x--5---5-------x--x--------|
A|----5---x--x--5---5-------x--x--------|
E|----3---x--x--3---3---3---x--x--3--1--|

    F  ↓   ↑  ↓  ↑   ↑   ↓   ↓  ↑  ↓  ↓
E|----1---x--x--1---1-------x--x--------|
B|----1---x--x--1---1-------x--x--------|
G|----2---x--x--2---2-------x--x--------|
D|----3---x--x--3---3-------x--x--------|
A|----3---x--x--3---3-------x--x--------|
E|----1---x--x--1---1---3---x--x--3--8--|

    C  ↓   ↑  | (Riff 1)
E|----8---x--|-------------------------------|
B|----8---x--|-------------------------------|
G|----9---x--|-/10------10-------------------|
D|----10--x--|-/10--12------12--10-----------|
A|----10--x--|----------------------12--10---|
E|----8---x--|-------------------------------|

Verso:  C  A G  F  C

C
  What would you say if we had never wasted,
G
  All of the time it took to be ok ?
F                                           C  Riff 1
  What would you say if we had never wasted us ?
C
  Somedays they burn into a gold horizon,
G
  Others they fade into the course of time.
F                                           C  Riff 1
  Another day, another memory crumbles to dust.

Refrão: A G F F7

A                     G                   F      Riff 2
  Throw me a lifeline now i'm starting to drown.
A                    G                    F      Riff 3
  Pull me a ripcord, soon i'm hitting the ground.
A                     G                     F
  Tell me, Is my time coming or a long time running
  Singing,
F7
  Love come save me now ?

Batida do Refrão:
  A ↓ ↓ ↓ |G ↓ ↓ ↓ |F ↓ ↓ ↓  | (Riff 2)
E|------X-|------X-|------X--|-------------------------|
B|------X-|------X-|------X--|-------------------------|
G|------X-|------X-|------X--|-------------------------|
D|------X-|------X-|------X--|-------------------------|
A|------X-|------X-|------X--|-------3-5---3-----------|
E|--5-5-X-|--3-3-X-|--1-1-X--|---3/5---------5-3/5-----|

  A ↓ ↓ ↓ |G ↓ ↓ ↓ |F ↓ ↓ ↓  | (Riff 3)
E|------X-|------X-|------X--|-------------------------|
B|------X-|------X-|------X--|-------------------------|
G|------X-|------X-|------X--|---------------------5---|
D|------X-|------X-|------X--|----------------5h7--5---|
A|------X-|------X-|------X--|-------3h5/7-------------|
E|--5-5-X-|--3-3-X-|--1-1-X--|---3/5-------------------|

   F7E|---1----------|
B|---1----------|
G|---2----------|
D|---1----------|
A|---3----------|
E|---1----------|

Verso: C  A G  F  C

C
  There's music blowing in the kona winds It's singing,
G                                               F
  Up in the clouds before the rain begins, It's bringing me back my soul,
                     C  Riff 1
  Gave my heart to the sea.
C
  Just like the tide we all could come and go,
G
  We could be everything we ever hoped,
  So maybe,
F                                               C  Riff 1
  All i could hope is one day you will remember me.

Refrão: A G F F7

A                     G                   F      Riff 2
  Throw me a lifeline now i'm starting to drown.
A                    G                    F      Riff 3
  Pull me a ripcord, soon i'm hitting the ground.
A                     G                     F
  Tell me, Is my time coming or a long time running
  Singing,
F7
  Love come save me now ?

C              G                   F            C Riif 1
  Love... Come save me now... come save me now..
00:00 / 00:00
Outros vídeos desta música
Repetir
Outros vídeos desta música
Compositor não encontrado.
Colaboração e revisão:
  • Lucas
2.782 exibições
    • ½ Tom
    • A
    • Bb
    • B
    • C
    • Db
    • D
    • Eb
    • E
    • F
    • F#
    • G
    • Ab
  • Adicionar à lista

    0 comentários

    Ver todos os comentários

    Entre para oCifra Club PRO

    Tenha acesso a benefícios exclusivos no App e no Site

    • Chega de anúncios

    • Prioridade de compra em lançamentos

    • Mais recursos no app do Afinador

    • Atendimento Prioritário

    • Descontos nos produtos Cifra Club

    • Ajude a produzir mais conteúdo

    00:00 / 00:00

    Cifra Club Pro

    Aproveite o Cifra Club com benefícios exclusivos e sem anúncios
    Cifra Club Pro
    Aproveite o Cifra Club com benefícios exclusivos e sem anúncios
    OK