Cifra Club

My Mind Is An Echo Chamber

Mat Mchugh

Cifra: Principal (violão e guitarra)
tom: F#
Intro 2x: D#m B F# C# 

Dedilhado 1:
    D#m                   B            F#              C#
E|------------------------------------------------------------|
B|----7------7-------------------11-----11--------------------|
G|----8------8------8-----8------11-----11------10-----10-----|
D|----8----8--------9-----9------11---11--------11-----11-----|
A|--6----6----------9---9------9-----9----------11---11-------|
E|----------------7----7-----------------------9----9---------|

(dedilhado 1)
 D#m            B
See, I feel so lost without you
    F#           C#
Without you near to me
  D#m          B
See, I feel so cold without you
    F#           C#
Without you here to see
  D#m            B
This world keeps spinning 'round, it's
    F#           C#
It's orbit here in space
  D#m           B
And each time I look around, I
    F#           C#
I swear I see your face
  D#m            B  F#  C#
I see your face...
  D#m           B            F#  C#
I swear I see your face, there

  D#m         B
And I know at times I've tested
   F#           C#
Your patience, hurt your soul
  D#m     B
But never have I suggested
   F#           C#
We ever let this go
  D#m          B
Now I miss you more than you could
   F#           C#
Could ever realize
  D#m          B
And if I could take it back, I
   F#           C#
I promise you I'd try

I'd...

Dedilhado 2:
     B                           C#
E|------------------------------------------------------------------|
B|------------------------------------------------------------------|
G|----8------8-----8------8---------10------10-----10------10-------|
D|----9------9-----9------9---------11------11-----11------11-------|
A|----9----9-------9----9-----------11----11-------11----11---------|
E|--7----7-------7----7----------9------9--------9-----9------------|

     B
Tell you we could make it matter
     C#
Tell you we could make it good
     B
I've got a heart that's made to shatter
     C#
Maybe that's the way it should
     B
And I know this world gets crazy
     C#
Well I lost all self-control
     B
Where are you to come to save me?
     C#
When I need you near to hold?

(dedilhado 1)
( Dm  B  F#  C# )
Oh, my mind is an echo chamber...
Oh, my mind is an echo...
00:00 / 00:00
Outros vídeos desta música
Repetir
Outros vídeos desta música
Composição de Mat Mchugh
Colaboração e revisão:
  • Lucas
760 exibições
    • ½ Tom
    • A
    • Bb
    • B
    • C
    • Db
    • D
    • Eb
    • E
    • F
    • F#
    • G
    • Ab
  • Adicionar à lista

    0 comentários

    Ver todos os comentários

    Entre para oCifra Club PRO

    Tenha acesso a benefícios exclusivos no App e no Site

    • Chega de anúncios

    • Prioridade de compra em lançamentos

    • Mais recursos no app do Afinador

    • Atendimento Prioritário

    • Descontos nos produtos Cifra Club

    • Ajude a produzir mais conteúdo

    00:00 / 00:00

    Cifra Club Pro

    Aproveite o Cifra Club com benefícios exclusivos e sem anúncios
    Cifra Club Pro
    Aproveite o Cifra Club com benefícios exclusivos e sem anúncios
    OK