Cifra Club

Numb

Mat Mchugh

Cifra: Principal (violão e guitarra)
tom: C
Afine o violão em D G C F A D
Base dos versos: C e Am

Riff Principal:
              C                                 Am
E |---------------------------------------------------------------------
B |--------1---X--1----1-------------------1--X--1----1-----------------
G |--------0---X--0----0-------------------2--X--2----2---------2p0-----
D |--------2---X--2----2-------------------2--X--2----2---0h2-------0---
A |----3-------X-----3----3--5--3--2--0-------X----0--------------------
E |---------------------------------------------------------------------

Base do Refrão: F G Am G C

  Tem um riffzinho quando da o C
E |------------------------
B |------------------------
G |------------------------
D |---0h2-0h2p0------------
A |-------------------3p0--
E |------------------------

(RIFF PRINCIPAL)
So tell me now, what it is that you think that i've done?
It's too cold around here without your love and I'm numb
So crucify me if it makes you feel alright
But i'm around if you get lonely tonight

(Refrão com o riff no C)
Let's say good bye now, let it go
'Cause lovin' you I guess is never easy
You'll be my girl always, you know
But that doesn't mean that you'll be with me
Time takes away the pain eventually

(RIFF PRINCIPAL)
Every day ends, but another will come
And I won't regret it, never let it undone
Since every mile's been walked by a better man than I
But I'mma try believe way your pain and hold it, you might

(Refrão com o riff no C)
Those never fall, they don't ever rise
But I'mma getting through, don't worry an reason
Now down before a paradise
You said you never knew one thing about freedom
Time slowly washes by the seasons
00:00 / 00:00
Outros vídeos desta música
Repetir
Outros vídeos desta música
Composição de Mat McHugh
Colaboração e revisão:
  • Tiago Vieira
2.354 exibições
    • ½ Tom
    • A
    • Bb
    • B
    • C
    • Db
    • D
    • Eb
    • E
    • F
    • F#
    • G
    • Ab
  • Adicionar à lista

    0 comentários

    Ver todos os comentários

    Entre para oCifra Club PRO

    Tenha acesso a benefícios exclusivos no App e no Site

    • Chega de anúncios

    • Prioridade de compra em lançamentos

    • Mais recursos no app do Afinador

    • Atendimento Prioritário

    • Descontos nos produtos Cifra Club

    • Ajude a produzir mais conteúdo

    00:00 / 00:00

    Cifra Club Pro

    Aproveite o Cifra Club com benefícios exclusivos e sem anúncios
    Cifra Club Pro
    Aproveite o Cifra Club com benefícios exclusivos e sem anúncios
    OK