Cifra Club

Aprenda

O último bar

Matanza

Cifra: Principal (violão e guitarra)
Tom: A
Intro:

Riff 1 - 4x:

     E E
E|--------| 
B|--------|
G|--------| 
D|-9-9-*--|
A|-7-7-*--|
E|--------|
   
Solo Introdução:

E|-----------------------------------|
B|-----------------------------------|
G|-----------------------------------| 
D|-----------------------------------|
A|------7-7-7-7---7-9-9-7---7-7------|
E|-7h9----------9---------9----------|

E|----------------------------------------------------| 
B|----------------------------------------------------|
G|----------------------------------------------------| 
D|------9--9h11-11-11-11-9----9-9-9h11p9----9---------| 
A|-9/11--------------------11------------11---7h9-----| 
E|----------------------------------------------------|

E|-----------------------------------------------------| 
B|-----------------------------------------------------|
G|-----------------------------------------------------| 
D|-9h11-11-11-11-9-----9-9--9h11p9----9----------------|
A|------------------11-------------11---7h9------------|
E|-----------------------------------------------------|

E|-------------------------------------------------|
B|-------------------------------------------------|
G|-------------------------------------------------| 
D|-7-6-6-------------------------------------------|
A|-------9p7---7-7h9-9-9/11-11-9-11-9--------------|
E|-----------9-------------------------------------|

Riff 2 - Base:

   E   E   E   E   E   E   E   E
E|-------------------------------| 
B|-------------------------------|
G|(9)-(9)-(9)-(9)-(9)-(9)-(9)-(9)| 
D|-9---9---9---9---9---9---9---9-| 
A|-7---7---7---7---7---7---7---7-| 
E|-------------------------------|
   1x  5x  1x  5x  1x  5x  1x  5x
   ^       ^       ^       ^

Riff 2 - Solo - 4x:

E|----------------| 
B|----------------|
G|----------------|
D|----------------|
A|-7--7-7---------|
E|-0-------9-9-7-9|

E|------------------------------------------------------| 
B|------------------------------------------------------|  
G|--------------------------2----4--------------------- | 2x
D|-2----6----2----6----2----2----2----------------------| 
A|-2----4----2----4----2----0---------------------------|
E|-0---------0---------0--------------------------------|
  (14) (7)  (5)  (7)  (5)  (6)  (6)

O último bar quando fecha de manhã
Só me lembra que eu não tenho aonde ir
Bourdon tenho de mais mas que diferença faz
Se você não está aqui pra dividir

Nada hoje em dia é como costumva ser
Do jeito que era divertido um tempo atrás
Varava noite a dentro pelos bares por aí
Enchendo a cara e pertubando a paz

Riff 4:

  C#  G#  A   E   E D#  C#  D   E            
E|---------------------------------| 
B|---------------------------------|
G|---------------------------------| 2x
D|-6-----------2---9--8--6--7--9---| 
A|-4---6---7---2---7--6--4--5--7---|
E|-----4---5---0-------------------|
  (6) (6) (6) (3) (1)(1)(8)(8)(16)

Não é nenhuma novidade
Ficar uma semana sem dormir
Em cada esquina tem um bar
Em cada copo uma vontade de sumir de vez daqui

Mas se eu voltei pra essa cidade
Foi atrás de muito tempo que eu perdi
E cada vez que passa um Cadilac
Eu fico procurando se é você a dirigir

Riff 5:

   A  C# E   B A  C# E   B A  C# E   B C#  D   E
E|--------------------------------------------------| 
B|--------------------------------------------------|
G|--------------------------------------------------| 
D|-----6/9--9------6/9--9------6/9--9---6----7------| 
A|-7---4/7--7--7---4/7--7--7---4/7--7---4----5------|
E|-5-----------5-----------5------------------------|
  (5)      (6)         (6)         (6)

Toda noite tem sempre alguém pra lhe dizer
Que mulher que vai querer te ver assim?
Pleno festival, mulherada, carnaval
E eu aqui com uma garrafa já no fim

Riff 1 - 4x:

   E E
E|--------| 
B|--------|
G|--------| 
D|-9-9-*--|
A|-7-7-*--|
E|--------|
  
Solo da Intro:

E|-----------------------------------| 
B|-----------------------------------|
G|-----------------------------------| 
D|-----------------------------------|
A|------7-7-7-7---7-9-9-7---7-7------|
E|-7h9----------9---------9----------|

E|----------------------------------------------------| 
B|----------------------------------------------------|
G|----------------------------------------------------| 
D|------9--9h11-11-11-11-9----9-9-9h11p9----9---------| 
A|-9/11--------------------11------------11---7h9-----| 
E|----------------------------------------------------|

E|-----------------------------------------------------| 
B|-----------------------------------------------------|
G|-----------------------------------------------------| 
D|-9h11-11-11-11-9-----9-9--9h11p9----9----------------|
A|------------------11-------------11---7h9------------|
E|-----------------------------------------------------|

E|-------------------------------------------------| 
B|-------------------------------------------------|
G|-------------------------------------------------| 
D|-7-6-6-------------------------------------------|
A|-------9p7---7-7h9-9-9/11-11-9-11-9--------------|
E|-----------9-------------------------------------|

Riff 3 - Base:

     E   E   E   E   E   E   E   E
E|-------------------------------| 
B|-------------------------------|
G|(9)-(9)-(9)-(9)-(9)-(9)-(9)-(9)| 
D|-9---9---9---9---9---9---9---9-| 
A|-7---7---7---7---7---7---7---7-| 
E|-------------------------------|
   1x  5x  1x  5x  1x  5x  1x  5x
   ^       ^       ^       ^

Riff 2 - Solo - 4x:

E|----------------|
B|----------------|
G|----------------|
D|----------------|
A|-7--7-7---------|
E|-0-------9-9-7-9|
E|------------------------------------------------------| 
B|------------------------------------------------------| 
G|--------------------------2----4--------------------- | 2x
D|-2----6----2----6----2----2----2----------------------|  
A|-2----4----2----4----2----0---------------------------|
E|-0---------0---------0--------------------------------|
  (14) (7)  (5)  (7)  (5)  (6)  (6)

O último bar quando fecha de manhã
Só me lembra que eu não tenho aonde ir
Bordon tenho de mais mas que diferença faz
Se você não está aqui pra dividir

Nada hoje em dia é como costumva ser
Do jeito que era divertido um tempo atrás
Varava noite a dentro pelos bares por aí
Enchendo a cara e pertubando a paz

Riff 4:

   C#  G#  A   E   E D#  C#  D   E
E|---------------------------------| 
B|---------------------------------|
G|---------------------------------|  2x
D|-6-----------2---9--8--6--7--9---| 
A|-4---6---7---2---7--6--4--5--7---|
E|-----4---5---0-------------------|
  (6) (6) (6) (3) (1)(1)(8)(8)(16)

Não é nenhuma novidade
Ficar uma semana sem dormir
Em cada esquina tem um bar
Em cada copo uma vontade de sumir de vez daqui

Riff 4:

   C#  G#  A   B   E D#  C#  D   E
E|-----------------------------| 
B|-----------------------------|
G|-6-----------9-8---6---7---9-| 
D|-6--6--7--9--9-8---6---7---9-| 
A|-4--6--7--9--7-6---4---5---7-| 
E|----4--5--7------------------|
   P.M.  .  .
  (2)(2)(2)(1)( 1 ) (2) (2) (5)

Mas se eu voltei pra essa cidade
Foi atrás de muito tempo que eu perdi
E cada vez que passa um Cadilac
Eu fico procurando se é você a dirigir

Riff 5:

     A  C# E   B A  C# E   B A  C# E   B C#  D   E
E|--------------------------------------------------| 
B|--------------------------------------------------|
G|--------------------------------------------------| 
D|-----6/9--9------6/9--9------6/9--9---6----7------| 
A|-7---4/7--7--7---4/7--7--7---4/7--7---4----5------|
E|-5-----------5-----------5------------------------|
  (5)      (6)         (6)         (6)

Toda noite tem sempre alguém pra lhe dizer
Que mulher que vai querer te ver assim?
Pleno festival, mulherada, carnaval
E eu aqui com uma garrafa já no fim

Riff 1 - 4x:

   E E
E|--------| 
B|--------|
G|--------| 
D|-9-9-*--| 
A|-7-7-*--|
E|--------|

Solo Final:

E|-----------------------------------| 
B|-----------------------------------|
G|-----------------------------------| 
D|-----------------------------------|
A|------7-7-7-7---7-9-7-7----7-7-----|
E|-7h9----------9----------9---------|

E|-----------------------------------------------------|
B|-----------------------------------------------------|
G|---------------------------------------------------- |
D|------9-9h11-11-11-9h11-11-11-9-9-9h11p9----9-11-9---|
A|-9/11-------------------------------- ---11----------|
E|-----------------------------------------------------|

E|-------------------------------------------------------| 
B|-------------------------------------------------------|
G|--9----------------------------------------------------|
D|----11p9--11p9----9------------------------------------|
A|---------------11----11p9--11p9-----9-11-9-------------|
E|---------------------------------12--------------------|

E|-------------------------------------------------| 
B|-------------------------------------------------|
G|-------------------------------------------------| 
D|-7-6-6-------------------------------------------|
A|-------9p7---7-7h9-9-9/11-11-9-11-9--------------|
E|-----------9-------------------------------------|

Riff 2 - Solo - 3x

E|----------------| 
B|----------------| 
G|----------------|
D|----------------|
A|-7--7-7---------|
E|-0-------9-9-7-9|

E|----------------| 
B|----------------|
G|----------------|
D|----------------|
A|--9--7----------|
E|--7--5----------|

E|----------------| 
B|----------------|
G|----------------|
D|----------------|
A|--9~------------|
E|--7~------------|
Colaboração e revisão:
134.499 exibições
    • ½ Tom
    • A
    • Bb
    • B
    • C
    • Db
    • D
    • Eb
    • E
    • F
    • F#
    • G
    • Ab
  • Adicionar à lista

    0 comentários

    Mostrar mais comentários

    Conseguiu tocar?

    4 Tocaram 1 Ainda não

    Grave um vídeo tocando O último bar e mande pra gente!

    00:00 / 00:00
    outros vídeos desta música
    repetir qualidade Automático
    Outros vídeos desta música
    00:00 / 00:00
    Automático

    Cifra Club Pro

    Aproveite o Cifra Club com benefícios exclusivos e sem anúncios
    7 dias grátis
    Cifra Club Pro
    Aproveite o Cifra Club com benefícios exclusivos e sem anúncios
    7 dias grátis
    OK