Cifra Club

Aprenda

Sua Assinatura

Matanza

Cifra: Principal (violão e guitarra)
Tom: F
Intro guitarra:

E|-----------------------------------------------------------------|
B|-----------------------------------------------------------------|
G|-----------------3-3-2-0-2-2-0-2-0-0---0---------------------3-2-|
D|-0-0-----3-3-0-----------------------3---3-3-2-3-2-0-2-3-2-0-----|
A|-----3-0-------0-------------------------------------------------|
E|-----------------------------------------------------------------|

E|-----------------------------------------------------------------------|
B|-----------------------------------------------------------------------|
G|-7-7-7-7-10-10-10-10-3-3-3-3-2-2-2-2--2-3-0-2---0----------------------|
D|-7-7-7-7-10-10-10-10--------------------------3---2-3-0-2---0----------|
A|-5-5-5-5-8--8--8--8---------------------------------------3---1-3-1-0--|
E|-----------------------------------------------------------------------|

E|--------------------|
B|--------------------|
G|-7-7--7-7--7-7--7-7-|
D|-7-7--7-7--7-7--7-7-|
A|-5-5--5-5--5-5--5-5-|
E|--------------------|

D5                      F5                         Bb5
Eu posso ouvir, e posso ver você tentando se esquivar de mim
       A5                       D5
Você nunca foi um cara muito esperto
      F5                           Bb5
Acha que de mim não vai chegar nem perto,
        A5                           D5
Mas eu estou a poucos passos de você.

    D5                  F5                          Bb5
Mas tudo bem, porque eu sei do gosto ruim que a paranoia tem
        A5                       D5
Sei do desconforto de quem sente medo.
         F5                      Bb5
Não há bebida que afogue o seu segredo
        A5                      D5
Há um passado que não pode revelar.

F5             E5                 D5
Mas soube me pedir, saiba também me pagar.
            B5             A5         D5
Fácil como foi ter vindo aqui me procurar.
               G5                       F5                       A5
Eu sei como se sente, eu sei que se arrepende, é assim com muita gente.

Riff:

E|---------------------------------|
B|---------------------------------|
G|---------------------------------|
D|---------3-----------------------|
A|-3-5-5-5---5-5-5-3-5-5-5-3-0-----|
E|-----------------------------3-0-|

       G5         A5            Bb5         C5         (Riff)
Mas se essa assinatura é sua, a sua alma impura agora vem pra mim.
       G5         A5            Bb5         C5             (Riff)
Mas se essa assinatura é sua, a sua alma impura vem pra mim.
       G5         A5            Bb5         C5         (Riff)
Mas se essa assinatura é sua, a sua alma impura agora vem pra mim.
       G5         A5            Bb5         C5            D5
Mas se essa assinatura é sua, a sua alma impura vem pra mim.

E|-------------------------------------------------------------------|
B|-------------------------------------------------------------------|
G|----------------3-3-2-0-2-2-2-2---2-3-0-2---0----------------------|
D|0-0-----3-3-0-----------------------------3---2-3-0-2---0----------|
A|----3-0-------0---------------------------------------3---1-3-1-0--|
E|-------------------------------------------------------------------|

E|--------------------|
B|--------------------|
G|-7-7--7-7--7-7--7-7-|
D|-7-7--7-7--7-7--7-7-|
A|-5-5--5-5--5-5--5-5-|
E|--------------------|

   D5             F5                         Bb5
Eu derrubei muita gente pra poder te transformar em rei
      A5                      D5
De um povo que te olha com desprezo
       F5                         Bb5
É tão irônico que encontra-se indefeso
        A5                       D5
Eu faço muito gosto em vê-lo decair.

    D5                F5                           Bb5
Não sei dizer o que explica a obsessão de ter pra aparecer
        A5                       D5
De conseguir as coisas sem merecimento,
        F5                   Bb5
E é por isso que agora o atormento,
        A5                     D5
Com a verdade que não quer admitir.

F5             E5                 D5
Mas soube me pedir, saiba também me pagar.
           Bb5             A5         D5
Fácil como foi ter vindo aqui me procurar.
               G5                       F5                       A5     (Riff)
Eu sei como se sente, eu sei que se arrepende, é assim com muita gente.


       G5         A5           Bb5         C5         (Riff)
Mas se essa assinatura é sua, a sua alma impura agora vem pra mim.
       G5         A5           Bb5         C5             (Riff)
Mas se essa assinatura é sua, a sua alma impura vem pra mim.
       G5         A5           Bb5         C5         (Riff)
Mas se essa assinatura é sua, a sua alma impura agora vem pra mim.
       G5         A5           Bb5         C5              D5 Bb5 G5 A5 (deixa soar cada nota)
Mas se essa assinatura é sua, a sua alma impura vem pra mim.

E|-------------------------------------------------------------------------------------------------------------------|
B|-------------------------------------------------------------------------------------------------------------------|
G|-------0---------3-2-0-----------0-2-3-5-3-2-0---2-3-0-2---0-----------0---------3-2-0-----------0-----------------|
D|-0-2-3---3-2-0---------3-2-0-2-3---------------3---------3---2-3-0-2-3---3-2-0---------3-2-0-2-3---3-2-0-3-2-0---0-|
A|---------------3---------------------------------------------------------------3-------------------------------3---|
E|-------------------------------------------------------------------------------------------------------------------|

E|-------------------------------------------------------------------------------------|
B|-------------------------------------------------------------------------------------|
G|-3-3-2-0-3-3-2-0-2-2-0---2-2-0---0-0-----0-0----------------------7-7--7-7--7-7--7-7-|
D|-----------------------3-------3-----3-2-----3-2-3-3-2-0-3-3-2-0--7-7--7-7--7-7--7-7-|
A|------------------------------------------------------------------5-5--5-5--5-5--5-5-|
E|-------------------------------------------------------------------------------------|

E|---------------------------------------------------------------------|
B|---------------------------------------------------------------------|
G|-3-3-2-0-3-3-2-0-2-2-0---2-2-0---0-0-----0-0-------------------------|
D|-----------------------3-------3-----3-2-----3-2-3-3-2-0-3-3-2-0--3--|
A|------------------------------------------------------------------3--|
E|-------------------------------------------------------------------1-| 

Bb5 A5 Bb5 C5 Bb5 A5 (Riff)

       G5         A5            Bb5         C5         (Riff)
Mas se essa assinatura é sua, a sua alma impura agora vem pra mim.
       G5         A5            Bb5         C5             (Riff)
Mas se essa assinatura é sua, a sua alma impura vem pra mim.
       G5         A5            Bb5         C5         (Riff)
Mas se essa assinatura é sua, a sua alma impura agora vem pra mim.
       G5         A5            Bb5         C5             D5
Mas se essa assinatura é sua, a sua alma impura vem pra mim.
Composição de Marco Donida
Colaboração e revisão:
  • Vinicius Pinheiro
  • Champoski
8.202 exibições
    • ½ Tom
    • A
    • Bb
    • B
    • C
    • Db
    • D
    • Eb
    • E
    • F
    • F#
    • G
    • Ab
  • Adicionar à lista

    0 comentários

    Mostrar mais comentários

    Conseguiu tocar?

    6 Tocaram 2 Ainda não

    Grave um vídeo tocando Sua Assinatura e mande pra gente!

    00:00 / 00:00
    outros vídeos desta música
    repetir qualidade Automático
    Outros vídeos desta música
    00:00 / 00:00
    Automático

    Cifra Club Pro

    Aproveite o Cifra Club com benefícios exclusivos e sem anúncios
    7 dias grátis
    Cifra Club Pro
    Aproveite o Cifra Club com benefícios exclusivos e sem anúncios
    7 dias grátis
    OK