Cifra Club

Monsters

Matchbook Romance

Cifra: Principal (violão e guitarra)
tom: B
Afinação 1/2 tom abaixo

Intro:

E|--13-------------------13------------------------13------------------12--13--14--16-----|
B|------------14----------------------14----------------------14--------------------------|
G|------15-----------15-------15----------------15--------15------15----------------------|
D|----------------------------------------------------------------------------------------| (8x)
A|----------------------------------------------------------------------------------------|
E|----------------------------------------------------------------------------------------|

E|------------------------------------------------------------------|
B|------------------------------------------------------------------|
G|------------------------------------------------------------------|
D|------------------------------------------------------------------|
A|--2/------5\------2/------7\------2/------8\------2/------9\------|
E|------------------------------------------------------------------|

E|--13-------------------13-----------------------13--------------------13----------------|
B|------------14--------------------14-------------------------14----------------14-------|
G|------15-----------15-------15-----------15------------14---------14-------14------14---|
D|----------------------------------------------------------------------------------------| 
A|----------------------------------------------------------------------------------------|
E|----------------------------------------------------------------------------------------|

E|--12-------------------12------------------------12------------------12---------------------|
B|------------14---------------------14----------------------14-----------------14------------|
G|------14-----------14-------14------------14----------15---------15-------15-------15-------|
D|--------------------------------------------------------------------------------------------| 
A|--------------------------------------------------------------------------------------------|
E|--------------------------------------------------------------------------------------------|

Refrão:

         B        G        D        F#       G        E
E|--------------------------------------------------------|
B|--------------------------------------------------------|
G|--4-----------------7-----------------------------------|
D|--4--------5--------7--------4--------5--------2--------|
A|--2-[x8]---5-[x8]---5-[x8]---4-[x8]---5-[x8]---2-[x8]---|
E|-----------3-----------------2--------3--------0--------|

E|------------------------|          |-----------------------------|
B|------------------------|          |-----------------------------|
G|--4----4----4--4--4--4--|          |-----------------------------|
D|--4----4----4--4--4--4--| (3x)     |--4--2--0--2--0--------------|
A|--2----2----2--2--2--2--|          |-----------------4-----------|
E|------------------------|          |--------------------1~-------|

(Passagem antes do solo)

G|---------|
D|---/9-8-4--2/4\2-0--/9-9/12-11--12/14-12--14/16-9-8|
A|---------|

B|-12-0-12-0-12-0-12-0---------------------|  (3x)
G|---------------------12-0-12-0-11-0-11-0-|

B|-12-0-12-0-12-0-12-0--15-0-15-0-14-0-14-0-|

B|-12-0-12-0-12-0-12-0----------------------| (Essa parte uma vez e depois essa em baixo)
G|---------------------12-0-12-0--11-0-11-0-|

B|-10-0-10-0-10-0-10-0--8-0-8-0--7-0-7-0-| (2x)

G|-9b10r9-| (4x)

Solo:

        B                                    G
E|------------------------------------|-----------------------10----------10|                         B|------------------------------------|----------------------10b12-----12r10|
G|-9^(full)9--7-----7~------------7h9-|-9^(full)9--7-----7~-----------------|
D|---------------9-----------7h9------|---------------9---------------------|
A|----------------------7h9-----------|-------------------------------------|
E|------------------------------------|-------------------------------------|

        D                                 F#
E|---------------------------------|---------------------------------|
B|------8~------7~-----------------|---------------------------------|
G|--------------------------9~-----|-7~------6~----------------------|
D|---------------------------------|-----------------9~------8~------|
A|---------------------------------|---------------------------------|
E|---------------------------------|---------------------------------|

        G
E|---------------------------------------------------|
B|---------------------------------------------------|
G|---------------------------------------------------|
D|---------------------------------7--7--8--8--9--9--|
A|---------------------7--7--9--9--------------------|
E|-7--7--9--9--10--10--------------------------------|

        E
E|-------------------------------------------------------|
B|-------------------------7--7--10--10--11--11--12--12--|
G|-------------7--7--9--9--------------------------------|
D|-7--7--9--9--------------------------------------------|
A|-------------------------------------------------------|
E|-------------------------------------------------------|

        B
E|---------------------------------------------------------|
B|-0h2h3--3p2p0--0h2h3--3p2p0--0h3h5--5p3p0--0h3h5--5p3p0--|
G|---------------------------------------------------------|
D|---------------------------------------------------------|
A|---------------------------------------------------------|
E|---------------------------------------------------------|

        G
E|---------------------------------------------------------|
B|-0h5h7--7p5p0--0h5h7--7p5p0--0h7h8--8p7p0--0h7h8--8p7p0--|
G|---------------------------------------------------------|
D|---------------------------------------------------------|
A|---------------------------------------------------------|
E|---------------------------------------------------------|

        D
E|--------------------------------------------------------------|
B|-0h8h10-10p8p0-0h8h10-10p8p0-0h10h11-11p10p0-0h10h11-11p10p0--|
G|--------------------------------------------------------------|
D|--------------------------------------------------------------|
A|--------------------------------------------------------------|
E|--------------------------------------------------------------|

        F#
E|---------------------------------------------------|
B|-7777777778888888810101010101010101111111111111111-|
G|---------------------------------------------------|
D|---------------------------------------------------|
A|---------------------------------------------------|
E|---------------------------------------------------|

        G
E|-9p7-----10p7-----9p7-----10p7-----9~---|
B|------0--------0-------0--------0-------|
G|----------------------------------------|
D|----------------------------------------|
A|----------------------------------------|
E|----------------------------------------|

        E
E|-9p7-----10p7-----9p7-----10p7-----9~---|
B|------0--------0-------0--------0-------|
G|----------------------------------------|
D|----------------------------------------|
A|----------------------------------------|
E|----------------------------------------|
00:00 / 00:00
Outros vídeos desta música
Repetir
Outros vídeos desta música
Composição de Andrew Jordan / Matchbook Romance
Colaboração e revisão:
38.081 exibições
    • ½ Tom
    • A
    • Bb
    • B
    • C
    • Db
    • D
    • Eb
    • E
    • F
    • F#
    • G
    • Ab
  • Adicionar à lista

    0 comentários

    Ver todos os comentários

    Conseguiu tocar?

    13 Tocaram 1 Ainda não

    Grave um vídeo tocando Monsters e nos envie!

    Entre para oCifra Club PRO

    Tenha acesso a benefícios exclusivos no App e no Site

    • Chega de anúncios

    • Prioridade de compra em lançamentos

    • Mais recursos no app do Afinador

    • Atendimento Prioritário

    • Descontos nos produtos Cifra Club

    • Ajude a produzir mais conteúdo

    00:00 / 00:00

    Cifra Club Pro

    Aproveite o Cifra Club com benefícios exclusivos e sem anúncios
    Cifra Club Pro
    Aproveite o Cifra Club com benefícios exclusivos e sem anúncios
    OK