Cifra Club

Aprenda

Disease

Matchbox Twenty

Cifra: Principal (violão e guitarra)
tom: B
Intro:
G1:
G|-------------------------------------------------|
D|-4-4-4--4-4-4-6--6-6--6-6-6--5-5-5--5-5-5-6--6-6-|
A|-------------------------------------------------|
          G#m7*           C#m7           D#           G#m7        G#m7*:464446
G|------6-4---------------------------------------4-3----|        Eb:x65343
D|--4---6-4--4-4-4--4-4-4-6--6-6--6-6-6--5-5-5--5----4/6-|
A|--4h6--------------------------------------------------|
E|-------------------------------------------------------|
                    
Verse 1: G# F# G#      G# F# G#      C# B C#      G# F# G#

Verse 2:
   G#           D#    B A# B        D#    E D# E       C#    G#           D#
G|-----------------------------------------------------6------------------8--|
D|-6-4-6---6-4--8-----9-8--9---9-9--8-----6-6--6---6-6-6-----6-4-6---6-4--8--|
A|-6-4-6---6-4--6-------------------6-----7-6--7---7-6-4-----6-4-6---6-4--6--| 
E|-4-4-4---4-4--6-----7-6--7---7-7--6------------------------4-4-4---4-4--6--|

Verse 3: E   F#   G#m7   C#m7    E   Eb
e|-7-6-4--------7-6--| 
B|-------7--5-4------|
G|-------------------|

Chorus:( G#m7*  C#m7  D#  G#m )

( G#m7* )
E|-----------------|
B|----9-7----------|
G-/8-----8-6-/8---|
D|-----------------|

Verse 2: + Riff:
E|--------------------|------------------|-----------------|-------------------
B-/9--7--------------|-9--7-------------|-9--7------------|-9--7--------------
G|------8-6h86-4-6----|-----8-6h8-6-6-4--|-----8-6b8-6-4-3-|-----8-6h8-6-4-/6--
D|-----------------5--|------------------|-----------------|-------------------

(Verse 3)
(Chorus)

Bridge:   C#m7          G#m7          C#m7          Eb7
G1:
B|---------------------------------------------------------
G-4-3-----------4-3-----------4-3-----------4-3-----------
D|-----4-4/6666..----4-4/6666..----4-4/6666..----4-4/6666..

G2:
e-12-12-12-12..------------------------------11-11-11-11..-----------------------
B|-------------14-14-14-14..-11-11-11-11...---------------12-12-12-12..-9-9-9-9..-
G-9--9--9--9---------------------------------8--8--8--8-..-----------------------
D|-------------11-11-11-11..-8--8--8--8-------------------9--9--9--9----6-6-6-6..-

e-12-12-12-12..-------------------------12-11---12-11--12-11-12-11--
B|-------------14-14-14-14..11-11-11-11..----------------------------
G-9--9--9--9----------------------------9--8----9--8---9--8--9--8---
D|-------------11-11-11-11..8--8--8--8-..----------------------------

(Chorus)

Ending:( G#m7 Eb )
G1:
e------------------------------------------------------
B-9---9---9---9-8---8---8---8--7---7---7---7-8---8---8-
G|---8---8---8-----8---8---8------8---8---8-----8---8---
G2:
B|------------------------------------------------------
G|----4-3-------------------4-3-------------------------
D|--------6-6-6-6-6-5-5-5-5-----4-4-4-4-4-4-5-5-5-5-----

e------------------------------6\--
B|-------4--6b7b6----4----------4\--
G|-------4--6b7b6----4----------4\--
D|------------------------------4\--

lyric>>>>>>

Verse 1:
feels like you made a mistake
you made somebody's heart break
but now I have to let you go
I have to let you go

Verse 2:
you left a stain
on every one of my good days
but I am stronger than you know
I have to let you go

Verse 3:
no one's ever turned you over
no one's tried
to ever let you down
beautiful girl.. bless your heart

Chorus:
I got a disease
deep inside me
makes me   feel uneasy, baby
I can't live without you, tell me
what am I s'posed to do about it
keep your distance from it
don't pay no attention to me
I got a disease

Verse 1:
feels like you're making a mess
you're hell on wheels in a black dress
you drove me to the fire
and left me there to burn

Verse 3:
every little thing you do is tragic
all my life before was magic
beautiful girl.. I can't breathe

(Chorus)+
 I think that I'm sick
 but leave me be
 while my world is coming down on me
 you taste like honey, honey
 tell me can I be your honeybee
 be strong
 keep telling myself
 that it won't take long 'till
 I'm free of my disease..

Bridge:
 I'm free of my disease.. free of my disease.. hooohh...

(Chorus)

Ending:
 I'm free of my disease.. free of my disease..
Composição de Mick Jagger / Rob Thomas
Colaboração e revisão:
  • jardel medeiros
  • Diego
84.491 exibições
    • ½ Tom
    • A
    • Bb
    • B
    • C
    • Db
    • D
    • Eb
    • E
    • F
    • F#
    • G
    • Ab
  • Adicionar à lista

    0 comentários

    Ver todos os comentários

    Conseguiu tocar?

    1 Tocaram 0 Ainda não

    Grave um vídeo tocando Disease e nos envie!

    00:00 / 00:00
    outros vídeos desta música
    repetir qualidade Automático
    Outros vídeos desta música
    00:00 / 00:00
    Automático

    Cifra Club Pro

    Aproveite o Cifra Club com benefícios exclusivos e sem anúncios
    Cifra Club Pro
    Aproveite o Cifra Club com benefícios exclusivos e sem anúncios
    OK