Cifra Club

Aprenda

Long Day

Matchbox Twenty

Cifra: Principal (violão e guitarra)
Já pensou em usar uma coleção de roupas do Cifra Club? Responda as perguntas abaixo e nos ajude nessa missão! →
tom: Ab (forma dos acordes no tom de E) Capotraste na 4ª casa
(acústico)

afinação padrão (E A D G B E)

intr:

violão 1 (capo-traste na 4a casa)

e|--------4-----------------------------|
B|----7-----7-------------4--5---5-6-7--|
G|------6-----6-------4-6-4--4---4-4-6--|
D|--4-------------4-6-----6--4h6-4-4-4--|
A|------------------------6--7---7-6----|
E|------------------------4--------7----|

violão 2

e|--2-------------------------|
B|--2---------7------7--------|
G|--3-----4-6---6-4----6-4-3--|
D|--4---6---------------------|
A|----------------------------|
E|----------------------------|

riff1 (violão 2)

e|-------|
B|-------|
G|-------|
D|-------|
A|-------|
E|--0-0--|

riff 2 (violão 1)

e|--------4--------------------------------|
B|----7-----7-------------4--5---5-6-7--5--|
G|------6-----6-------4-6-4--4---4-4-6--4--|
D|--4-------------4-6-----6--4h6-4-4-4--4--|
A|------------------------6--7---7-6----7--|
E|------------------------4--------7-------|

riff 2 (violão 2)

e|--------------4h2-----------------------4h2----|
B|----------------------------7------------------|
G|------------------4-----4-6-----------------4--|
D|----------------------4------------------------|
A|-----------------------------------------------|
E|--0-0-2------------------------0-0-2-----------|

riff 3 (violão 2)

e|---------|
B|---------|
G|------4--|
D|------4--|
A|--4/6----|
E|---------|

riff 4 (violão 2)

e|-----------|
B|-----------|
G|-----------|
D|-----------|
A|-----------|
E|--0-0-2-4--|

riff 5 (violão 2)

e|--4h2---------------------------2-----2--|
B|----------------7-------------2-----2----|
G|------4-----4-6-------------4-----4------|
D|----------4------------------------------|
A|-----------------------------------------|
E|--------------------0-0-2----------------|

riff 6 (violão 2)

e|-----------------------------------|
B|--11----11----11---11----11----11--|
G|-----15----15---------15----15-----|
D|-----------------------------------|
A|-----------------------------------|
E|-----------------------------------|

riif 7 (violão 2)

e|-----------0--|
B|-----------0--|
G|-----------1--|
D|-----------2--|
A|------2-4--2--|
E|--2-4------0--|


     F#
Its sitting by the overcoat 
    Abm 
the second shelf the notes she wrote
     E                B              F#         
that I can't bring myself to throw away 
E 
 and also
 F#                             Abm
reach she said for no one else but you
              E
cuz you wont turn away
      B               F# 
when someone else is gone

     F#
I'm sorry bout the attitude
  Abm
I need to give when I'm with you
    E                 B                  F#
and no one else will take this shit from me
E (riff 1)
 and I'm so
 F#                      Abm
terrified of no one else but me 
                  E 
I'm here all the time
    B           F# 
I won't go away

 E  F#     Abm            E              B           F# 
yeeeah, its me, yeah Well I can't get myself to go away :
 E  F#     Abm            E                          B  : riff 2
yeeeah, its me, yeah well I can't get myself to go away :
                    F#                                  :
oh god I shouldn't feel this way now                    /

Abm
   reach down your hand in you pocket
E
 pull out some hope for me
            B   (B4/7 B7)  F# (F#4 F#)           Abm
its been a long day,      always      aint that right

but no lord your hand want stop it
E
 just keep you trembeling
            B   (B4/7 B7)  F# (F#4 F#)          E
its been a long day,      always      aint that right

     F#
Well I'm surprised that you'd believe
   Abm                        (riff 3)
in anything that comes from me
   E                B        F#
I didn't hear from you or someone else
       E (riff 1)
and you're so
F#
set in life man, a pisser they're waiting
Abm                (riff 3)     E
too damn bad you get so far so fast
  B      F#
so what, so long

(riff 4)

Abm
   reach down your hand in you pocket
E
 pull out some hope for me
            B   (B4/7 B7)  F# (F#4 F#)           Abm
its been a long day,      always      aint that right
                   (riff 3)
but no lord your hand want stop it
E
 just keep you trembeling
            B   (B4/7 B7)  F# (F#4 F#)          E
its been a long day,      always      aint that right

hell ain't that right

solo (violão 2) (F# G#m E B F# E F# G#m E B F# E)

e|------------------------------------------------------------|
B|--(7)---------(7)-------------------------------------------|
G|----------4h6---------4h6-4h6-4-------4-3--4-3--------------|
D|--(4)-4h6-----(4)-4h6-----------4-4h6----------6-4-----4-4--|
A|---------------------------------------------------4h6------|
E|------------------------------------------------------------|

e|--------------------------6-7---6-7-9/11-11-11b-11-9/7--7-7h6-6-6h4-4-4------------------|
B|---------------4h5h4-4--7-----7-------------------------7-7---7-7---7-4---7---7---7---7--|
G|----3h4h3-3--4------------------------------------------------------------6h8-6h8-6h8-6--|
D|--4--------------------------------------------------------------------------------------|
A|-----------------------------------------------------------------------------------------|
E|-----------------------------------------------------------------------------------------|

 E  F#     Abm            E              B           F# 
yeeeah, its me, yeah Well I can't get myself to go away : violão 1 - riff 2
 E  F#     Abm            E                          B  : 
yeeeah, its me, yeah well I can't get myself to go away : violão 2 - riff 5
                    F#                                  :
oh god I shouldn't feel this way now                    /

vocalização final

Abm F# E

riff 6 (ao final de cada E)

riff 7
Composição de Rob Thomas
Colaboração e revisão:
  • steingt s
28.200 exibições
    • ½ Tom
    • A
    • Bb
    • B
    • C
    • Db
    • D
    • Eb
    • E
    • F
    • F#
    • G
    • Ab
  • Adicionar à lista

    0 comentários

    Ver todos os comentários

    Conseguiu tocar?

    0 Tocaram 0 Ainda não

    Grave um vídeo tocando Long Day e nos envie!

    00:00 / 00:00
    outros vídeos desta música
    repetir qualidade Automático
    Outros vídeos desta música
    00:00 / 00:00
    Automático

    Cifra Club Pro

    Aproveite o Cifra Club com benefícios exclusivos e sem anúncios
    Cifra Club Pro
    Aproveite o Cifra Club com benefícios exclusivos e sem anúncios
    OK