Cifra Club

Aprenda

Push

Matchbox Twenty

Cifra: Principal (violão e guitarra)
tom: G
Intro: G  D/F#  Em  C(add2) 2x

     G              D/F#                Em
She said I don't know if I've ever been good enough
           C(add2)      G           D/F#        Em    C(add2)
I'm a little bit rusty, and I think my head is caving in
  G             D/F#                Em
And I don't know if I've ever been really loved
      C(add2)        G          D/F#               Em
By a hand that's touched me, and I feel like somethings gonna give
           C(add2)
And I'm a little bit angry
Dadd9                        C                        Dadd9
Oh well, this ain't over, no not here, not while I still need you around
                   C      D
You don't owe me, we might change yeah, yeah we just might feel good


Chorus:
G     D         Csus2      D
I wanna push you around, well I will, well I will
G     D         Csus2    D
I wanna push you down, well I will, well I will
Em    D            C    D
I wanna take you for granted...
Em    D            C
I wanna take you for granted...
        D               G  D/F#  Em  C(add2)  - Twice
Yeah Yeah I will, I will

     G              D/F#             Em
She said I don't know why you ever would lie to me
             C(add2)     G              D/F#            Em   C(add2)
Like I'm a little untrusting when I think that the truth is gonna hurt ya
  G                 D/F#         Em
And I don't know why you couldn't just stay with me
              C(add2)    G           D/F#            Em
You couldn't stand to be near me, when my face don't seem to want to shine
             C(add2)
Cause it's a little bit dirty
Dadd9                              C
Oh well, don't just stand there, and say nice things to me
                         Dadd9
Cause I've been cheated, I've been wronged and you
                  C
You don't owe me yeah, well I can't change,
        D
I won't do anything at all...


(Chorus)

Em          D/F#   C               D                 Em
Oh but don't bowl me over, just wait a minute, well it kind of fell apart
    D/F#   C    C
Things get so crazy, crazy
Em       D/F#    C(add2)     D    Em      D/F#     C(add2)      D
Don't rush this ba-by,           don't rush this ba-by,       baby...


(Chorus)


Acordes:

G|-       320001      D/F# -    20023X     Em - 022000
C(add2) - X32030      Dadd9   - XX0230     C -  332010



TABLATURA

Intro: Clean Tone

Strum:  ///       ///        ///     ///        2X
E|-----------------------------------------------|
B|-----------------------------------------------|
G|-------11-------------------8------------------|
D|---11--11--------11------8--8-------9----------|
A|---9----------11-11------6--------9-9----------|
E|--------------9-------------------7------------|


Verses: Clean Tone              
               
She said, I don't know if I' ever been good enough   
E|----------------------------------------------------|
B|----------------------------------------------------|
G|----------11--------------------------------------8-|
D|----------11-----------------11-------------------8-|
A|----------9------------------11-------------------6-|
E|------------------------------9---------------------|

I'm a little bit rusty 'an I think my head is cavin' in...
E|--------------------------------------------------------------------|
B|--------------------------------------------------------------------|
G|-----------------------11----------------------------8--------------|
D|------7-///------------11-------------11-------------8--------7-///-|
A|------7----------------9--------------11-------------6--------7-----|
E|------9-------------------------------9-----------------------9-----|

And I don't know if I' ever been really loved
By a hand that's touched me, and I feel like something's gonna give
And I'm a little bit angry


Pre-chorus: add distortion
Well, this ain't over, no not here    
E|------------------------------------------| H--9-------
B|------------------------------------7-9---|
G|--10------------------------------8-8-----|
D|--11-----------------------------9--9-----|
A|--11-----------------------------9--9-----|
E|--9------------------------------7--------|


Not while I still need you around

E|----------------------------------|
B|----------------------------------|
G|----------------------------10----|
D|----------------------------11----|
A|----------------------------11----|
E|----------------------------9-----|

You don't owe me, we might change    
E|-------------------------------------------| H--9------
B|-------------------------------------7-9---|
G|---------------------------------8--8------|
D|---------------------------------9--9------|
A|---------------------------------9--9------|
E|---------------------------------7---------|

Yeah we just might feel good
E|--------------------|
B|--------------------|
G|----------10--------|
D|----------11--///---| into chorus-----
A|----------11--------|
E|----------9---------|


Chorus: With distortion, strummed

 I wanna push you around, well I will, well I will 
E|----------------------------------------------|
B|----------------------------------------------|
G|-11-------------------------------------------|
D|-11------11---------------9------------11-----|
A|-9-------11---------------9------------11-----|
E|---------9----------------7------------9------|

 I wanna push you down,   well I will, well I will
E|----------------------------------------------|
B|----------------------------------------------|
G|-11-------------------------------------------|
D|-11------11---------------9------------11-----|
A|-9-------11---------------9------------11-----|
E|---------9----------------7------------9------|

  I wanna take you for granted     2X     ... Yeah, well I will
E|--------------------------------------------------------|
B|--------------------------------------------------------|
G|--8-----------------------------------------------------|
D|--8-/-----11---//--------9-//-------11-///--------...---| into solo---
A|--6-------11--------------9----------11-----------------|
E|----------9--------------7----------9-------------------|


Solo:
                 / = slide     V = vibrato
E|-----------------------------------------------|
B|-----------------------------------------------| V---
G|---------------------------8-----11-11/13-11---|
D|-----11---8--------------118-------------------|
A|--9-9---11--9----------11----------------------|
E|------------10/11-9---9------------------------|


Verse 2:
Sh' said I don't know why you ever would lie to me
Like I'm a little untrustin when I think that the 
  truth is gonna hurt ya.
And I don't know why you couldn't just stay with me, 
  you couldn't stand to be near me. 
when my face don't seem to want to shine
  'cause its a little bit dirty.

Pre-chorus 2:
Well, don't just stand there sayin nice things to me,
  cause I've been cheated, I've been wronged.
You, you don't know me; yeah well I can't change 
  I won't do anything at all.

E|-->to| chorus

Bridge: strummed

Oh but don't bowl me over, just wait a minute... it kinda fell apart.
E|---------------------------------------------------------------------|
B|---------------------------------------------------------------------|
G|-8-------------------------------------------------------------------|
D|-8-----------9-------------7----------9------------------------------|
A|-6-----------11------------7----------11-----------------------------|
E|-------------11------------9----------11-----------------------------|

Things... get... so crazy.... crazy
E|-------------------------------------------|
B|-------------------------------------------|
G|--8----------------------------------------|
D|--8-------9----------7---ST----------------| OP--7----6----
A|--6-------11---------7-------7-------9-8---|
E|----------11---------9-------9-------------|

Don't... rush this baby...
E|---------------------------------|
B|---------------------------------|
G|-8-------------------------------|
D|-8-------9---------7----------9--|
A|-6-------11--------7----------11-|
E|---------11--------9----------11-|

Don't... rush this bay bay...
E|----------------------------------|
B|----------------------------------|
G|--8--------------------------(w---| ith urgency...into chorus)-
D|--8------9---------7---------9----|
A|--6------11--------7---------11---|
E|---------11--------9---------11---|


(That's pretty much it... but at the end of the 
song--after the bridge|--use the following progression:)

                    and end on:
E|-------------------------------|
B|-------------------------------|
G|----11--------8-----------11---|
D|----11---11---8---9-------11---|
A|----9----11---6---9-------9----|
E|----------9-------7------------|
Composição de Matt Serletic / Rob Thomas
Colaboração e revisão:
  • Gabriel Mello
  • Tiago Barros
77.421 exibições
    • ½ Tom
    • A
    • Bb
    • B
    • C
    • Db
    • D
    • Eb
    • E
    • F
    • F#
    • G
    • Ab
  • Adicionar à lista

    0 comentários

    Ver todos os comentários

    Conseguiu tocar?

    1 Tocaram 0 Ainda não

    Grave um vídeo tocando Push e nos envie!

    00:00 / 00:00
    outros vídeos desta música
    repetir qualidade Automático
    Outros vídeos desta música
    00:00 / 00:00
    Automático

    Cifra Club Pro

    Aproveite o Cifra Club com benefícios exclusivos e sem anúncios
    Cifra Club Pro
    Aproveite o Cifra Club com benefícios exclusivos e sem anúncios
    OK