Cifra Club

Aprenda

Unwell

Matchbox Twenty

Cifra: Principal (violão e guitarra)
tom: A
Intro 2x: A  D  F#m  E
E|------5--7--5-------------5--7--5---5~-|
B|-5/7--5--7--5--7-5---5/7--5--7--5---5~-|
G|-4/6-----------6-4---4/6---------------|
D|---------------------------------------|
A|---------------------------------------|
E|---------------------------------------|

E|------5--7--5-------------5--7--5---4~-|
B|-5/7--5--7--5--7-5---5/7--5--7--5---5~-|
G|-4/6-----------6-4---4/6---------------|
D|---------------------------------------|
A|---------------------------------------|
E|---------------------------------------|

E|------5--7--5-------------5--7--5---5~----7--5------------5--7--5-|
B|-5/7--5--7--5--7-5---5/7--5--7--5---5~----7--5--7-5--5/7--5--7--5-|
G|-4/6-----------6-4---4/6------------------------6-4--4/6----------|
D|------------------------------------------------------------------|
A|------------------------------------------------------------------|
E|------------------------------------------------------------------|

E|------5--7--5-------------5--7--5---5~-------------------|
B|-5/7--5--7--5--7-5---5/7--5--7--5---4~----5----5/7--7/9~-|
G|-4/6-----------6-4---4/6--------------------4--4/6--6/9~-|
D|---------------------------------------------------------|
A|---------------------------------------------------------|
E|---------------------------------------------------------|

D     E
All day
A              F#m
Staring at the ceiling making
D        E                F#m
Friends with shadows on my wall

D     E
All night
A                  F#m
I'm hearing voices telling me
D
That I should get some sleep
                  E
Because tomorrow might be good

For something
C#m  D
Hold on
      A                     E
I'm feeling like I'm headed for a
C#m  D
Breakdown
      A            E
I don't know why

Refrão:
A                                           D
I'm not crazy I'm just a little unwell

I know right now you can't tell
F#m                                         E
But stay awhile and maybe then you'll see

A different side of me
A                                           D
I'm not crazy I'm just a little impaired

I know right now you don't care
F#m                                                  E
But soon enough you're gonna think of me

And how I used to be

D     E
      me
A                  F#m
Talking to myself in public
D                      E               F#m
And dodging glances on the train

D     E
I know
A                                  F#m
I know they've all been talking 'bout me
D
I can hear them whisper
          E
And it makes me think there must be something wrong
C#m  D
With me
      A            E
Out of all the hours thinking
C#m  D
Somehow
A            E
I've lost my mind

(Refrão)

A                                      D
But I'm not crazy, I'm just a little unwell
                           F#m
I know right now you can't tell
                                      E
But stay awhile and maybe then you'll see
                    D
A different side of me

Solo: A  F#m  A  F#m  A  F#m  E  E
E|------5--7--5-------------5--7--5---5~-|
B|-5/7--5--7--5--7-5---5/7--5--7--5---5~-|
G|-4/6-----------6-4---4/6---------------|
D|---------------------------------------|
A|---------------------------------------|
E|---------------------------------------|

E|------5--7--5-------------5--7--5---4~-|
B|-5/7--5--7--5--7-5---5/7--5--7--5---5~-|
G|-4/6-----------6-4---4/6---------------|
D|---------------------------------------|
A|---------------------------------------|
E|---------------------------------------|

E|------5--7--5-------------5--7--5---5~----7--5------------5--7--5-|
B|-5/7--5--7--5--7-5---5/7--5--7--5---5~----7--5--7-5--5/7--5--7--5-|
G|-4/6-----------6-4---4/6------------------------6-4--4/6----------|
D|------------------------------------------------------------------|
A|------------------------------------------------------------------|
E|------------------------------------------------------------------|

E|------5--7--5-------------5--7--5---5~-------------------|
B|-5/7--5--7--5--7-5---5/7--5--7--5---4~----5----5/7--7/9~-|
G|-4/6-----------6-4---4/6--------------------4--4/6--6/9~-|
D|---------------------------------------------------------|
A|---------------------------------------------------------|
E|---------------------------------------------------------|

Solo:
E|------7h5--7p5h7p5---------7h5-----5---------7p5--7p5------5--------|
B|--5/7-7h5--7h5h7p5-7---5/6-7h5-5/7-5-7---5/7-7p5--7p5--5/7-5-7---5--|
G|--4/6--------------6---4/7-----4/6---6---4/6-----------4/6---6---4--|
D|--------------------------------------------------------------------|
A|--------------------------------------------------------------------|
E|--------------------------------------------------------------------|

E|------5---5-9--5/9--14-12-11-----17-16-14-----|
B|--5h7---7--------------------14-----------17--|
G|----------------------------------------------|
D|----------------------------------------------|
A|----------------------------------------------|
E|----------------------------------------------|

F#m           D
Talking in my sleep
F#m                         D
Pretty soon they'll come to get me
F#m                    E
They'll be taking me away

Refrão:
    A                                   D
But I'm not crazy, I'm just a little unwell
                           F#m
I know right now you can't tell
                                      E
But stay awhile and maybe then you'll see

A different side of me
A                                   D
I'm not crazy, I'm just a little impaired
                           F#m
I know right now you don't care
                                      E
But soon enough you're gonna think of me
                    D
And how I used to be

Yeah, how I used to be... 
Composição de Rob Thomas
Colaboração e revisão:
186.183 exibições
    • ½ Tom
    • A
    • Bb
    • B
    • C
    • Db
    • D
    • Eb
    • E
    • F
    • F#
    • G
    • Ab
  • Adicionar à lista

    0 comentários

    Ver todos os comentários

    Conseguiu tocar?

    14 Tocaram 1 Ainda não

    Grave um vídeo tocando Unwell e nos envie!

    00:00 / 00:00
    outros vídeos desta música
    repetir qualidade Automático
    Outros vídeos desta música
    00:00 / 00:00
    Automático

    Cifra Club Pro

    Aproveite o Cifra Club com benefícios exclusivos e sem anúncios
    Cifra Club Pro
    Aproveite o Cifra Club com benefícios exclusivos e sem anúncios
    OK