Cifra Club

Aprenda

Cacos

Matheus e Kauan

Cifra: Principal (violão e guitarra)
Tom: Em
[Intro] C9  D  Em

E|------------------------------------------|
B|-8\5-7-8--10\7-8-10--12\13----------------|
G|------------------------------------------|
D|------------------------------------------|
A|------------------------------------------|
E|------------------------------------------|

E|------------------------------------------|
B|-12\8-10-12--7/8\7\5----------------------|
G|------------------------------------------|
D|------------------------------------------|
A|------------------------------------------|
E|------------------------------------------|

[Primeira Parte]

C9
Ela se queimou
    D
Tentando se aquecer
            Em
Em outros braços
  C9
E ela corta os outros
     D
Porque seu coração
         Em
Está em cacos

[Pré-Refrão]

               C9
Quem foi o culpado
Não interessa
           D
Pra ganhar ela
Eu não tenho pressa
             G
Espero uma primavera
    D/F#         Em
Ou só um fim de festa
              C9
E compensa esperar
                       D
Eu sei que compensa esperar

[Refrão]

              C9
Se em outras bocas
Só deixou saudade
            D
E os seus amores
Foram de passagem
        Em
Aceito ser mais uma tentativa
Vai que num beijo
Eu resolvo sua a vida
              C9
Se em outras bocas
Só deixou saudade
            D
E os seus amores
Foram de passagem
        Em
Aceito ser mais uma tentativa
Vai que num beijo
Eu resolvo a sua vida
              C9   D
Aí cê para e fica
              Em  G
Aí cê para e fica

[Solo] C9  D  Em 

E|-5/12-12-10-15-7-5--3/10-10-7-12-3-2------|
B|-------------------------------------3----|
G|------------------------------------------|
D|------------------------------------------|
A|------------------------------------------|
E|------------------------------------------|

E|-3/7-5-10-7-5--3-3/5-10\3-----------------|
B|--------------------------3-3/5-----------|
G|------------------------------------------|
D|------------------------------------------|
A|------------------------------------------|
E|------------------------------------------|

[Pré-Refrão]

               C9
Quem foi o culpado
Não interessa
           D
Pra ganhar ela
Eu não tenho pressa
             G
Espero uma primavera
  D/F#          Em
Ou só um fim de festa
              C9
E compensa esperar
                       D
Eu sei que compensa esperar

[Refrão]

              C9
Se em outras bocas
Só deixou saudade
            D
E os seus amores
Foram de passagem
        Em
Aceito ser mais uma tentativa
Vai que num beijo
Eu resolvo sua a vida
              C9
Se em outras bocas
Só deixou saudade
            D
E os seus amores
Foram de passagem
        Em
Aceito ser mais uma tentativa
Vai que num beijo
Eu resolvo a sua vida
             C9   D
E cê para e fica
              Em  G
Aí cê para e fica

             C9   D
E cê para e fica
           Em
Eu aceito ser mais uma tentativa
Vai que num beijo
Eu resolvo a sua vida
Composição de Gabriel Agra / Matheus Marcolino / Philipe Pancadinha / Thales Lessa / Victor Hugo
Colaboração e revisão:
73.641 exibições
    • ½ Tom
    • Am
    • Bbm
    • Bm
    • Cm
    • C#m
    • Dm
    • Ebm
    • Em
    • Fm
    • F#m
    • Gm
    • G#m
  • Adicionar à lista

    0 comentários

    Mostrar mais comentários
    00:00 / 00:00
    outros vídeos desta música
    repetir qualidade Automático
    Outros vídeos desta música
    00:00 / 00:00
    Automático

    Cifra Club Pro

    Aproveite o Cifra Club com benefícios exclusivos e sem anúncios
    7 dias grátis
    Cifra Club Pro
    Aproveite o Cifra Club com benefícios exclusivos e sem anúncios
    7 dias grátis
    OK