Cifra Club

Aprenda

Na Hora do Adeus

Matogrosso & Mathias

Cifra: Principal (violão e guitarra)
tom: Am
[Intro] Am  E7  Am  E7  Am

[Solo]

E|-------------------------------|
B|--5-4-5-4-5---5/6-5-5----------|
G|------------5---------7-4------|
D|---------------------------6---|
A|-------------------------------|
E|-------------------------------|

E|-------------------------------|
B|--3-2-3-2-3---3/5-3-3----------|
G|------------4---------5-2------|
D|--------------------------2----|
A|-------------------------------|
E|-------------------------------|

E|--8-7-8-7-8---10-8-7-----------|
B|-------------------------------|
G|------------9------------------|
D|-------------------------------|
A|-------------------------------|
E|-------------------------------|

E|----10-8-7---10-8-5-------5-5--|
B|-------------------------------|
G|--9--------9-------------------|
D|-------------------------------|
A|-------------------------------|
E|-------------------------------|

[Primeira Parte]
             E7                   Am
Na hora do adeus, você olhou pra mim
             E7                   Am
E não acreditou, ao ver chegar o fim
               Dm  G7                 C
Tentou me seduzir,   chorando me agarrou
 Am             Dm     E7          Am  A7
Teu corpo ofereceu, pediu me suplicou

[Pré-Refrão]
             Dm      G7               C
E perguntou por que,mas eu não respondi
 Am                Dm          E7     Am  A7
Só pra não te ofender, disse adeus e saí

[Refrão]
            Dm                 G7                C
Saí da tua vida eu só representava, cheque no final do mês
             Am                    Dm
Você não respeitou quem te amou demais
              E7                   Am  A7
Só abusou de mim e me passou pra trás
            Dm                G7                C
Saí da tua vida de cabeça erguida, coisa que você não fez
                Am                   Dm
Eu já chorei demais agora vem a sua vez
                 E7                       Am
Eu acho que vai ser melhor, melhor pros três

( Am  E7  Am  E7  Am )

[Pré-Refrão]
             Dm      G7               C
E perguntou por que,mas eu não respondi
 Am                Dm          E7     Am  A7
Só pra não te ofender, disse adeus e saí

[Refrão]
            Dm                 G7                C
Saí da tua vida eu só representava, cheque no final do mês
             Am                    Dm
Você não respeitou quem te amou demais
              E7                   Am  A7
Só abusou de mim e me passou pra trás
            Dm                G7                C
Saí da tua vida de cabeça erguida, coisa que você não fez
                Am                   Dm
Eu já chorei demais agora vem a sua vez
                 E7                       Am
Eu acho que vai ser melhor, melhor pros três

[Final]
             E7                   Am
Na hora do adeus, você olhou pra mim
             E7                   Am
E não acreditou, ao ver chegar o fim
Composição de Carlos Colla / Chico Roque
463.934 exibições
    • ½ Tom
    • Am
    • Bbm
    • Bm
    • Cm
    • C#m
    • Dm
    • Ebm
    • Em
    • Fm
    • F#m
    • Gm
    • G#m
  • Adicionar à lista

    0 comentários

    Ver todos os comentários
    00:00 / 00:00
    Outros vídeos desta música
    Repetir Qualidade Automático
    Outros vídeos desta música
    00:00 / 00:00
    Automático

    Cifra Club Pro

    Aproveite o Cifra Club com benefícios exclusivos e sem anúncios
    Cifra Club Pro
    Aproveite o Cifra Club com benefícios exclusivos e sem anúncios
    OK