Cifra Club

Pele de Maçã

Matogrosso & Mathias

Cifra: Principal
exibições 139.521
Tom: A
[Intro]  A  Bm  E  A  D  A  Bm  E  A  D  A

E|------------------------------------------------------|
E|-------7-8------------------7-8/10--------------------|
G|---7-9------------------7-9--------7/9-7--------------|
D|-----------9/10-9-10----------------------------------|
A|------------------------------------------------------|
E|------------------------------------------------------|

E|----------------------------------------------7/8-7---|
B|-------7-8------------------7/8---7----7-8-10---------|
G|---7-9------------------7-9-----9---------------------|
D|-----------9/10-9-10----------------------------------|
A|------------------------------------------------------|
E|------------------------------------------------------| 
                                                                                                       
          D       E            C#m
Olhos de paixão, lábios de carmim
 F#m           Bm          D
Beijo de hortelã, pele de maçã
  E           A
Cheiro de jasmim
            D    E         C#m
Sorriso inocente, a me iludir
            Bm               E
Voz de sedução, você é a canção
                  A
Mais linda que eu ouvi
       E                 F#m
Minha loucura, minha ternura
             D          A
Ah se eu soubesse escrever
               E                     F#m
O quanto eu te amo, o quanto eu te adoro
          D         E           A
Nessa canção seria pouco pra dizer
         E           F#m
Doce paixão, no coração
            D       E         A
Já não sei mais, viver sem você
Acordes para:

    0 comentários

      mostrar mais comentários

      Conseguiu tocar?

      7tocaram0ainda não

      Grave um vídeo tocando Pele de Maçã e mande pra gente!

      00:00 / 00:00
      outros vídeos desta música
      repetirqualidadeautomática
      Outro vídeos desta música
        00:00 / 00:00
        automática
        OK